Oops, an error
Loading. Please wait.

Sing For The Moment Bass Tab

version 3
version 3

Whole song

Interactive

4,696 views 15 this week
no commentswrite comment
1 2 3 4 5
excellent!
x 3
add to favorites
launch autoscroll
font size
0
reset
guitar tuner
Autoscroll
slow
fast
+/-
esc
set tempo
stop
Help us to improve Ultimate-Guitar.com Take our survey!
×
Difficulty
novice
Intro:
G------------------------------------------------------------------|
D------------------15/17-15H17-18-17-15-15H17----------------3H5-3-|
A--------------15----------------------------15--------------------|
E-8--1--/--13------------------------------------13\---------------|

Verse:
G|-----------------------------------------------------|
D|--------------------------3---3-5---5-6---6-8~-------|
A|---8--8-6---6-4--4-6---6-----------------------------|
E|-----------------------------------------------------|

G|-----------------------------------------------------|
D|--------------------------3---3-5---5-6---6-8~-------|
A|---8--8-6---6-4--4-6---6-----------------------------|
E|-----------------------------------------------------|

G|-----------------------------------------------------|
D|--------------------------3---3-5---5-6---6-8~-------|
A|---8--8-6---6-4--4-6---6-----------------------------|
E|-----------------------------------------------------|

G|-----------------------------------------------------|
D|--------------------------3---3-5---5-6---6-8~-------|
A|---8--8-6---6-4--4-6---6-----------------------------|
E|-----------------------------------------------------|


Chorus:
G|-----------------------------------------------------------------|
D|--------------------------3---3-5---5-6---6-8----[10-11-10-11----|x4
A|---8--8-6---6-4--4-6---6-----------------------------------------|
E|-----------------------------------------------------------------|

Verse:
G|-----------------------------------------------------|
D|--------------------------3---3-5---5-6---6-8~-------|
A|---8--8-6---6-4--4-6---6-----------------------------|
E|-----------------------------------------------------|

G|-----------------------------------------------------|
D|--------------------------3---3-5---5-6---6-8~-------|
A|---8--8-6---6-4--4-6---6-----------------------------|
E|-----------------------------------------------------|

G|-----------------------------------------------------|
D|--------------------------3---3-5---5-6---6-8~-------|
A|---8--8-6---6-4--4-6---6-----------------------------|
E|-----------------------------------------------------|

G|-----------------------------------------------------|
D|--------------------------3---3-5---5-6---6-8~-------|
A|---8--8-6---6-4--4-6---6-----------------------------|
E|-----------------------------------------------------|

G|-----------------------------------------------------|
D|--------------------------3---3-5---5-6---6-8~-------|
A|---8--8-6---6-4--4-6---6-----------------------------|
E|-----------------------------------------------------|

G|-----------------------------------------------------|
D|--------------------------3---3-5---5-6---6-8~-------|
A|---8--8-6---6-4--4-6---6-----------------------------|
E|-----------------------------------------------------|

G|-----------------------------------------------------|
D|--------------------------3---3-5---5-6---6-8~-------|
A|---8--8-6---6-4--4-6---6-----------------------------|
E|-----------------------------------------------------|

Chorus:
G|-----------------------------------------------------------------|
D|--------------------------3---3-5---5-6---6-8----[10-11-10-11----|x4
A|---8--8-6---6-4--4-6---6-----------------------------------------|
E|-----------------------------------------------------------------|

Outro to fade:
G|----------------------------------------------------------------|
D|--------------------------3---3-5---5-6---6-8~------------------|
A|---8--8-6---6-4--4-6---6----------------------------------------|
E|----------------------------------------------------------------|

G|----------------------------------------------------------------|
D|--------------------------3---3-5---5-6---6-8~------------------|
A|---8--8-6---6-4--4-6---6----------------------------------------|
E|----------------------------------------------------------------|
Suggest correction
Give kudos to tab author, rate the tab!
1 2 3 4 5
comments
print report bad tab
guest
You may want to rate the tab now too:
select rating
Please do not post tabs as comments. Select "correction" instead!