Oops, an error
Loading. Please wait.

Slim Shady Bass Tab

4,930 views 3 this week
1 commentread comment
1 2 3 4 5
x 3
add to favorites
launch autoscroll
font size
0
reset
guitar tuner
Autoscroll
slow
fast
+/-
esc
set tempo
stop
Help us to improve Ultimate-Guitar.com Take our survey!
×
Author
Difficulty
intermediate
Artist: Eminem
Track: The Slim Shady LP (All Tracks)
Bassist: Mike Olizando? for most?

-------------------------

Track 02- My Name is

G-------|------|------|-----|
D-------|------|------|-----|
A-------|------|------|-----|
E-1---1-|3---3-|6---6-|-4---|
  Fm      Gdim   A#m    G#

-------------

Track 03- Guilty Concience

G-------------|--------------|----------|---------------|
D--77-5--77--5|-77-5-7-5-----|----------|-----------5-6-|
A-------------|----------8-7-|66---66---|66----6-8------|
E-------------|--------------|---3----3-|---3-----------|
  Am            Am             Ebm        Ebm
------------

Track 04- Brain Damage
Verses
G---------------7---5--|
D------7---------------|
A--5-8---8---5----5----|
E----------------------|
  Dm 
G------7-------7----5--|
D----7--7--------------|
A--5--------5----5-----|
E----------------------|
  Dm
Chorus
G-------------|--------------|
D--7--5-------|--------------|
A--------8--7-|-5--3-----7---|
E-------------|-------0------|
  
------------

Track 06- If I Had (Not at concert pitch so slightly bend notes up)
G-------------|--------------|
D-------------|--------------|
A--4----------|--------------|
E-------------|-4------------|
  C#m           G#m
------------

Track 07- 97' Bonnie & Clyde

G-------------|--------------|
D-------------|--------------|
A--------7----|--------------|
E--5--8-------|-5-5--5-------| x2
  Am            Am
G-------------|--------------|
D-------------|--------------|
A--5--3----5--|-7------------|
E-------------|----8---5-----|
  Dm            Am
G-------------|--------------|
D-------------|--------------|
A--5--3----5--|--------------|
E-------------|--8--7--5-----|
  Dm            Am
------------

Track 09- Role Model
               x 3               x 1
G-----------------|-----------------|
D-----------------|-----------------|
A-----------------|--------------4--|
E---6--4--6-------|---6--4--6-------|
  A#m                A#m
------------

Track 11- My Fault

chorus
G----------------|-----------------|---------------|-----------|
D----------------|-------5---------|---------------|-----------|
A--777777778--5-5|555555---8-7---7-|777777778-7-5-5|55--87-87--|
E----------------|-----------------|---------------|-----------|
    Edim      Dm                    Edim         Dm     Fmaj   
verses
G-----------------|-----------------|-------------------|-------------|
D-----------------|-----------5-----|-------------------|-------------|
A--7-7-77--7-7-8--|-5-5--5------8-7-|-7-7-77--7-7-8-7-5-|55----87-87--|
E-----------------|-----8--8--------|-------------------|-------------|
   Edim              Dm               Edim              Dm      Fmaj   
------------

Track 13- Cum on Everybody

verses and ending chorus
G------------------|--------------------|
D------------------|--------------------|
A--------------2h4-|-------------2h3h...|
E--2---0-2-0-2-----|-2---0-2-0-2--------|
  F#m                F#m
G------------------|--------------------|
D------------------|--------------------|
A--4---2-4-2-4-2h3h|4----4-4------------|
E------------------|--------------------|
   Bm                Bm
other choruses
                x2               x2
G-----------------|----------------|
D-----------------|---------44-----|
A---------44------|-22--55-----55--|
E-22--55------55--|----------------|
  F#m               Bm
------------

Track 14 - Rock Bottom

G--------|----------|--------|-------|
D--------|----------|--------|-------|
A--6--6--|-4----4-6-|--------|-------|
E--------|----6-----|2-------|6------|
  Ebm      Db        Gb       Abm
------------

Track 15- Just Don't Give a ***

Intro
G--------|-------|-------|-------|
D--------|-------|-------|-------|
A--------|-------|-------|-------|
E--0--/--|-5-----|-8-----|--7----|
  Em       Am      C       Bm
G--------|-------|-------|-------|
D--------|-------|-------|-------|
A--------|-------|-------|-------|
E--5-----|-3-----|-2-----|--0----|    all x 2
  Am       G      F#dim   Em
Verses:
play as above. but in staccato stlye. listen to drums for exact rhytm


Track 17- As The World turns

G---------------|----------|----------|-----------|
D-------6-------|----4-----|----------|--2--------|
A--4-------4--6-|-7--------|--2---4---|-----------|
E---------------|----------|----------|-----4--4--|
  C#m             E          B          G#m

------------

Track 18- I'm Shady

Intro
G--------|--------|--------|----------|
D--------|--------|--------|----------|
A--------|--------|--------|----------|
E-x2--x2-|-x2--x2-|-x2--x2-|-x2/14
Suggest correction
Give kudos to tab author, rate the tab!
1 2 3 4 5
comments
print report bad tab
1 comment total.
0 reply
Itsallgonegray 10 Jan 18, 2015 01:20 PM

What about Bad Meets Evil and Still Don't Give A F*ck

guest
You may want to rate the tab now too:
select rating
Wanna post a correction for this tab? Suggest correction