Oops, an error
Loading. Please wait.

Stan Tab

version 1
version 1

Interactive

9,970 views 3 this week
3 commentsread comments
1 2 3 4 5
x 3
add to favorites
launch autoscroll
font size
0
reset
how to read this tab
guitar tuner
Autoscroll
slow
fast
+/-
esc
set tempo
stop
Help us to improve Ultimate-Guitar.com Take our survey!
×
Eminem/ Stan.
Tabbed by renehage87@hotmail.com
1----------------------------------|---------------------------------------|
2----------------------------------|---------------------------------------|
3----------------------------------|---------------------------------------|
4----------------------------------|---------------------------------------|
5----------------------------------|---------------------------------------|
6-4--4-11--11-12--7-6-4 X3|-4--4-11--11-13--13-12--7-6-4|

This is more like a “Bass Line”, but it works almost just as good
with a normal guitar.
Suggest correction
Give kudos to tab author, rate the tab!
1 2 3 4 5
comments
print report bad tab
3 comments total.
+1 reply
Victorad 10 May 03, 2002 12:00 AM

Man you so full of shit ...this sounds nuttin' like it you fucker

0 reply
spearbritney 10 May 07, 2002 12:00 AM

yea it does dumbass good tab man i meen i dont ike eminme but goodjob that shit head doesnt know what he is talking about he is not musically talented congrats

0 reply
Coathe 41 Oct 19, 2007 02:51 PM

Well its not the way its playyed, probly same notes (cba to check) but thats not how they woudl play it, the tone is too low plus my ways easier:

G/------------------/
D/----2-24-4--------/
A/----------2-1h2p1-/
E/-4-4--------------/

And tis tabbed liek that cause its a bassline not the acoustic chords that you tabbed

guest
You may want to rate the tab now too:
select rating
Wanna post a correction for this tab? Suggest correction