Oops, an error
Loading. Please wait.

Stan Tab

version 2
version 2

Interactive

49,362 views 6 this week
3 commentsread comments
1 2 3 4 5
accurate
x 6
add to favorites
launch autoscroll
font size
0
reset
how to read this tab
guitar tuner
Autoscroll
slow
fast
+/-
esc
set tempo
stop
Help us to improve Ultimate-Guitar.com Take our survey!
×
Eminem,Stan.
Tabbed by Hailie Jade,Blink182rocks_@hotmail.com.
  
First Tab
e :-----------------------------
b :-----------------------------
g :-----------------------------
d :---------2--2--4-------------
a :------------------------2---1
e :----4--4-----------2---------

Repeat this three times and on the fourth time play:

Second Tab
e :-------------------------
b :-------------------------
g :-------------------------
d :----------2----2-3---3--2
a : ------------------------
e :---4---4----------------

You play that pattern (tab 1 3 times then tab 2) through the whole song! 

:: Ultimate Guitar Archive :: 
http://www.ultimate-guitar.com 

Suggest correction
comments
print report bad tab
3 comments total.
+2 reply
psychohorse 10 wrote on January 5 2003, 12:00 am

NEXT!

0 reply
Coathe 41 wrote on October 19 2007, 02:43 pm

This is the bassline, not the acoustic backing.

+2 reply
Gunny. 31 wrote on September 26 2008, 05:36 pm

this isnt just the bassline only, its also the wrong one. there u go :


Riff 1
E|------------------:----------------|
B|------------------:----------------|
G|------------------:----------------|
D|------------------:-4--------------|
A|----------7-----7-:----------------|
E|--4-----4---------:---------7---6--|

Riff 2
E|-----------------:-----------------|
B|-----------------:-----------------|
G|-----------------:-----------------|
D|-----------------:-----------------|
A|---------7-----7-:-8-------7-------|
E|-4-----4---------:-------------7-6-|

guest
You may want to rate the tab now too:
select rating
Wanna post a correction for this tab? Suggest correction