Oops, an error
Loading. Please wait.

Superman Tab

version 1
version 1

Intro

Whole song

Interactive

13,726 views 3 this week
2 commentsread comments
1 2 3 4 5
x 12
add to favorites
launch autoscroll
font size
0
reset
how to read this tab
guitar tuner
Autoscroll
slow
fast
+/-
esc
set tempo
stop
Help us to improve Ultimate-Guitar.com Take our survey!
×
Author
Eminem
Superman
Tabbed by Kjetil

|--------------------------------------------
|--------------------------------------------
|--------2--------------0--------0-----------
|-----2--------------2--------0-----------2--
|--0--------0--2--3--------2--------0--3-----
|--------------------------------------------


This is the intro of Eminem Superman, and it's correct.
Enjoy!
Suggest correction
comments
print report bad tab
2 comments total.
0 reply
Arize 0 Sep 25, 2002 12:00 AM

------------------------------------
------------------------------------
---2-------0----0----------------------
--2-------2----2-----2------------------
-0-----0-3----2-----2------------------
-------------------0-----------------

0 reply
Kirkomelette 10 Mar 21, 2004 12:00 AM

yea u ***ing dumbass its not correct

guest
You may want to rate the tab now too:
select rating
Wanna post a correction for this tab? Suggest correction