Oops, an error
Loading. Please wait.

Superman Tab

version 1
version 1

Whole song

Interactive

by Eminem
52,349 views 63 this week
1 commentread comment
1 2 3 4 5
x 10
add to favorites
×
Save as Personal and add changes to this tab that will be seen only by you. Learn more ›
×
You can save this tab as Personal to edit and correct it or add notes. All changes will be seen only by you. Learn more »
save as personal
new!
launch autoscroll
font size
0
reset
how to read this tab
guitar tuner
Autoscroll
slow
fast
+/-
esc
set tempo
stop
Eminem
Superman
Tabbed by Kjetil

[Intro]
|--------------------------------------------|
|--------------------------------------------|
|--------2--------------0--------0-----------|
|-----2--------------2--------0-----------2--|
|--0--------0--2--3--------2--------0--3-----|
|--------------------------------------------|


|--------------------3--------3---7-----------|
|-----------------5--------5------------------|
|---------2----5--------4---------------------|
|------2--------------------------------------|
|---0-----------------------------------------|
|---------------------------------------------|

Main riff:
|---0--2--3--5--7--5--3--2--0~-------|
|------------------------------------|
|------------------------------------|
|------------------------------------|
|------------------------------------|
|------------------------------------|


|---0--2--3--5--7--5--10--8--7-8-7~--|
|------------------------------------|
|------------------------------------|
|------------------------------------|
|------------------------------------|
|------------------------------------|

That's the intro and the main riff in Eminem Superman.



************************************

| ~  Vibrato

************************************
Suggest correction
comments
print report bad tab
1 comment total.
0 reply
SingleAsPringe 10 Jul 01, 2017 01:22 PM

If any of you are intrested in the sound between these two riffs in the chorus i just wanted to have it there and came up with this

|--0-2-3-2-0---------|
|--------------------|
|--------------------|
|--------------------|
|--------------------|
|--------------------|

though u have to do it quite fast so i recommend hammering it.
Just a little nice detail i decided to put in there

guest
Wanna post a correction for this tab? Suggest correction