Oops, an error
Loading. Please wait.

Superman Tab

version 5
version 5

Whole song

Interactive

22,340 views 51 this week
2 commentsread comments
1 2 3 4 5
excellent!
x 17
add to favorites
launch autoscroll
font size
0
reset
how to read this tab
guitar tuner
Autoscroll
slow
fast
+/-
esc
set tempo
stop
Help us to improve Ultimate-Guitar.com Take our survey!
×
Author
e|--------------------------------|
B|--------------------------------|
G|-----2-------0-------0----------|
D|----2-------2-------0-------2---|
A|---0---0-2-3-------2-------2----|
E|--------------------------0-----|

e|-----------3----3-7-------------|
B|----------5----5----------------|
G|-----2---5----4-----------------|
D|----2---------------------------|
A|---0----------------------------|
E|--------------------------------|


These are just the chords that will fit over the whole song
liten to how many times theyre played


e|--------------------------------|
B|--------------------------------|
G|---------5-----4----------------|
D|---7-----5-----4------2---------|
A|---7-----3-----2------2---------|
E|---5------------------0---------|



This is the part played over the chorus

e|-----------5--7--5--------------|
B|--5--7--8------------8--7--5----|
G|--------------------------------|
D|--------------------------------|
A|--------------------------------|
E|--------------------------------|

          
Suggest correction
What's this?
You can suggest a correction to this tab. Community and Mods will review your correction and vote to approve or reject it.
comments
print report bad tab
2 comments total.
+3 reply
Killer Method 20 wrote on December 8 2010, 02:43 pm

The little thing playing over the chorus goes like this at some parts:


e|-----------5--7--5--------------|
B|--5--7--8------------8--7--5----|
G|--------------------------------|
D|--------------------------------|
A|--------------------------------|
E|--------------------------------|

e|-----------5--7--5---10-8--7----|
B|--5--7--8-----------------------|
G|--------------------------------|
D|--------------------------------|
A|--------------------------------|
E|--------------------------------|

+1 reply
maklas-a 36 wrote on March 22 2015, 11:57 am

And I'd also add

e|----------------|
B|----------------|
G|----------------|
D|----------------|
A|----------------|
E|--------3-------|

after

e|--------------------------------|
B|--------------------------------|
G|-----2-------0-------0----------|
D|----2-------2-------0-------2---|
A|---0---0-2-3-------2-------2----|
E|--------------------------0-----|

guest
You may want to rate the tab now too:
select rating
Please do not post tabs as comments. Select "correction" instead!