Oops, an error
Loading. Please wait.

Superman Tab

version 6
version 6

Whole song

Interactive

31 views 9 this week
no commentswrite comment
1 2 3 4 5
2 more votes to show rating
add to favorites
launch autoscroll
font size
0
reset
how to read this tab
guitar tuner
Autoscroll
slow
fast
+/-
esc
set tempo
stop
Help us to improve Ultimate-Guitar.com Take our survey!
×
Author
Difficulty
novice
About this tab version
These tabs are not 100% accurate but if you learn them and listen to the song, it will get the job done. Was this info helpful? Yes No
[Intro]

e|--------------------------------------------------------3-----3-/7---------|
B|------------------------------------------------------5-----5----9---------|
G|--------2------------0-----0-------------------2----5-----4------8---------|
D|------2------------2-----0-------2-----------2-----------------------------|
A|----0--------0-2h3-----2-------2-----------0-------------------------------|
E|-----------------------------0--------3~~~~---------------------------3~~~~|


[Verse]

e|-------------5--7--5-------------------------5--7--5--/10--8--7----|
B|----5--7--8----------8--7--5--------5--7--8------------------------|
G|-------------------------------------------------------------------|
D|-------------------------------------------------------------------|
A|-------------------------------------------------------------------|
E|-------------------------------------------------------------------|


[Chorus]


e|---------------------------------------------------------------|
B|-----------5------4--------------------5------4----------------|
G|-----------5------4--------------------5------4----------------|
D|----7------3------2------2------7------3------2------2---------|
A|----7--------------------2------7--------------------2---------|
E|----5--------------------0------5--------------------0---------|


************************************

| h   Hammer on
| /   Slide up
| ~   Vibrato


************************************
Suggest correction
Give kudos to tab author, rate the tab!
1 2 3 4 5
comments
print report bad tab
guest
You may want to rate the tab now too:
select rating
Wanna post a correction for this tab? Suggest correction