Oops, an error
Loading. Please wait.

Survival Tab

version 1
version 1

Whole song

Interactive

35,449 views 54 this week
5 commentsread comments
1 2 3 4 5
x 15
add to favorites
launch autoscroll
font size
0
reset
how to read this tab
guitar tuner
Autoscroll
slow
fast
+/-
esc
set tempo
stop
Help us to improve Ultimate-Guitar.com Take our survey!
×
Author
Difficulty
novice
[Intro]
(is played other times throughout the song )
e|---------------------------------------|
B|---------------------------------------|     
G|---3----------3---------3------------7^|    
D|-----5--3--5----5--3--5----5--3--5-----|  
A|---------------------------------------|     
E|---------------------------------------|  

[Power Chords]
e|--------------------------------|
B|--------------------------------|
G|--------------------------------|                   
D|--x-5-x--3-3-----8-8--10--12--12| (4x)     
A|--x-5-x--3-3-----8-8--10--12--12|                
E|--x-3-x--1-1-----6-6---8--10--10|

[Instrumental]
(is played other times throughout the song )
e|---------------------------------------|
B|---------------------------------------|     
G|---3----------3---------3------------7^|    
D|-----5--3--5----5--3--5----5--3--5-----|  
A|---------------------------------------|     
E|---------------------------------------|  

[Power Chords]
e|--------------------------------|
B|--------------------------------|
G|--------------------------------|                   
D|--x-5-x--3-3-----8-8--10--12--12| (4x)     
A|--x-5-x--3-3-----8-8--10--12--12|                
E|--x-3-x--1-1-----6-6---8--10--10|


************************************

| x  Dead note

************************************
Suggest correction
comments
print report bad tab
5 comments total. Showing first comments.
0 reply
kev8194 10 Aug 27, 2013 01:34 PM

Awesome tab!!

0 reply
steven.rogers.7 10 Nov 12, 2013 11:49 AM

Brilliant dude!

0 reply
anujshahi87 10 Apr 16, 2016 01:44 AM

damn awesome thanks mate

guest
You may want to rate the tab now too:
select rating
Wanna post a correction for this tab? Suggest correction