Oops, an error
Loading. Please wait.

The Way I Am Bass Tab

version 3
version 3

Whole song

Interactive

2,187 views 1 this week
1 commentread comment
1 2 3 4 5
3 more votes to show rating
add to favorites
launch autoscroll
font size
0
reset
guitar tuner
Autoscroll
slow
fast
+/-
esc
set tempo
stop
Help us to improve Ultimate-Guitar.com Take our survey!
×
Author/Artist: EMINEM
Title: The way I am
Transcribed by: Justin Adair
Email: Cryptic102@aol.com

------------------------------------------------------------------------------
------------------------------------------------------------------------------
------------------------------------------------------------------------------
------------------------------------------------------------------------------
-------------7--5-----------3-------------------------------------------------
-5----7--8---------8---5----------3----4----0--5------------------------------
            you know the drill. Any requests for     kottomouth kings, i can  

 take care except for one song. psycadelic funk(i'll bust nutz if one of you  

 stoners tabs it out for me.)also i know almost every eminem, dr.dre, twista  

 bone , sublime, marley, ect.just ask.                                        
Suggest correction
Give kudos to tab author, rate the tab!
1 2 3 4 5
comments
print report bad tab
1 comment total.
0 reply
kuchfam2 0 Oct 14, 2002 12:00 AM

---------------------------------------
---------------------------------------
--------------7--5-----------3--0------
--0---5---8--------8--5----0------4-0-5

this sounds much better and is complete. your inital tab helped me figure the corrections out

guest
You may want to rate the tab now too:
select rating
Wanna post a correction for this tab? Suggest correction