Oops, an error
Loading. Please wait.

Till I Collapse Tab

version 2
version 2

Whole song

Interactive

54,567 views 156 this week
5 commentsread comments
1 2 3 4 5
x 74
add to favorites
launch autoscroll
font size
0
reset
how to read this tab
guitar tuner
Autoscroll
slow
fast
+/-
esc
set tempo
stop
Help us to improve Ultimate-Guitar.com Take our survey!
×
Bosco here, this is exactly what the song sounds like.

e|------------------------------------------------|
B|------------------------------------------------|
G|------------------------------------------------|
D|----6-6-6-6-6-4-6-7-6-------6-6-6-6-6-4-6-2-----|
A|--4-----------------------4---------------------|
E|------------------------------------------------|

e|--------------------------------------------------------|
B|--------------------------------------------------------|
G|--------------------------------------------------------|
D|----6-6-6-6-6-4-6-7-6-------6-6-6-6-6-4-6-2---1---------|
A|--4-----------------------4---------------------2-4-----|
E|--------------------------------------------------------|

You actually just play that through the whole song then so ya.  Have fun!
Suggest correction
comments
print report bad tab
5 comments total. Showing first comments.
+2 reply
Pieper1 162 Oct 20, 2004 12:00 AM

Hey I just a quick fix here.
You have a great tab but I just want to take perfection and make it more perfect.

At the end of the intro play it exactly the same except slide from 2 - 1 and from 2 - 4, the tab look like this

e|----------------------------------------------|
B|----------------------------------------------|
G|----------------------------------------------|
D|---6-6-6-6-6-4-6-7-6--6-6-6-6-6-4-6-2/1-------|
A|-4-------------------4------------------2-2/4-|
E|----------------------------------------------|

Its really simple but sounds good, have fun. Peace Out.
Pieper1

0 reply
godcheeseburger 10 Mar 23, 2012 08:25 PM

is it the same through the whole song

0 reply
godcheeseburger 10 Mar 23, 2012 08:26 PM

Is it played the same through the whole song

guest
You may want to rate the tab now too:
select rating
Wanna post a correction for this tab? Suggest correction