Oops, an error
Loading. Please wait.

Under The Influence Tab

version 1
version 1

Whole song

Interactive

1,778 views 3 this week
3 commentsread comments
1 2 3 4 5
x 3
add to favorites
launch autoscroll
font size
0
reset
how to read this tab
guitar tuner
Autoscroll
slow
fast
+/-
esc
set tempo
stop
Help us to improve Ultimate-Guitar.com Take our survey!
×
Standard Tuning

e]-------------------------
B]-------------------------
G]-------------------------
D]-------------------------
A]--0-5-0-5-7-8-7-5-0-----0
E]--------------------5-5--

e]-------------------------
B]-------------------------
G]-------------------------
D]------------------7-8-8-7
A]--0-5-0-5-7-8-7-5--------
E]-------------------------

That's it... Easy.

Tabbed By Dylan Lockman And Jacob Bobongie
Suggest correction
Give kudos to tab author, rate the tab!
1 2 3 4 5
comments
print report bad tab
3 comments total.
0 reply
pinkfloydude 10 Apr 21, 2002 12:00 AM

on the first pRT IT SOUNDS BETTER IF U GO A -0-5-0-5-7-8-7-5-0-1-1
E--------5

0 reply
pinkfloydude 10 Apr 21, 2002 12:00 AM

e---5 GOES AFTER THE LAST 1 ON A

0 reply
lilskaterchick 10 May 30, 2002 12:00 AM

its actually A--0-5-0-5-7-8-7-5-0-
E-------------6-6-5

guest
You may want to rate the tab now too:
select rating
Wanna post a correction for this tab? Suggest correction