Oops, an error
Loading. Please wait.

We Made You Tab

version 1
version 1

Intro

Whole song

14,646 views 15 this week
1 commentread comment
1 2 3 4 5
accurate
x 6
add to favorites
launch autoscroll
font size
0
reset
how to read this tab
guitar tuner
Tab Pro tools
  • play this tab
  • loop segment
  • change instrument
  • show fretboard
  • metronome
Autoscroll
slow
fast
+/-
esc
set tempo
stop
Singer Melody

E---------------------------|---------------------------|
B---------------------------|---------------------------|
G--------------------5------|--------------------5------|
D--5-7-8-5-7-8-5-7-8---8-5--|--4-5-7-4-5-7-4-5-8---8-5--|
A---------------------------|---------------------------|
E---------------------------|---------------------------|


E-----------------------------------|---------------------------|
B-----------------------------------|---------------------------|
G-----------------------------------|---------------------------|
D-4-5--8-5---5-5-5-5-8-8-8-8-7------|-----5---8-5--5-5-7-7-7-8--|
A-------------------------------8-8-|-8-8---8-------------------|
E-----------------------------------|---------------------------|

Verse

E-----------------------------|---------------------------|
B-----------------------------|---------------------------|
G--5-5-5-3--3----5-5-5--3--3--|-5-5-5-2--2--2--2--2--3----|
D--------5--5-----------5--5--|-------5--5--4--4--4--5----|
A-----5--------------5--------|-----5---------------------|
E-----------------------------|---------------------------|


I've added this to try show how the melody at the starts fits over the words so you can 
a rhythm to it. It's not perfect but you should be able to figure out any wrong notes in 
( There's some at the end of the third bar I can't be bothered figuring out.)

1st & 2nd Bars

When you walked through the door It was clear to me
 5    7    8       5     7    8  5   7   8 5  8  5...

3rd Bar

You’re a … rock star Everybody (Everybody wants you )
 4     5    8    5    5 5 5 5    8 8 8 8   7     8   8

4th Bar

Who could really blame you We're the ones who made you
 8     8   5  8     8   5    5    5   7     7  7    8
comments
print report bad tab
1 comment total.
0 reply
mcpowell16 wrote on August 9 2009, 06:33 am

-

I want to post or [tab]
guest
You may want to rate the tab now too:
select rating
Please do not post tabs as comments. Select "correction" instead!