Oops, an error
Loading. Please wait.

Shes Such A Beauty Bass Tab

16 views 1 this week
no commentswrite comment
1 2 3 4 5
3 more votes to show rating
add to favorites
launch autoscroll
font size
0
reset
guitar tuner
Autoscroll
slow
fast
+/-
esc
set tempo
stop
Help us to improve Ultimate-Guitar.com Take our survey!
×
Author
Difficulty
novice
Bass Start - 00:10


[Verse 1]

G|--------------|--------------|--------------|---------------|
D|--------------|--------8-----|--6-----5-----|--8------------|
A|--6-----6-----|--8--------8--|-----6-----6--|--------6------|
E|-----6-----6--|-----8--------|--------------|-----6-----6\--| * 6\ : very fast


G|--------------|--------------|--------------|----------|
D|--------------|--------8-----|--6-----5-----|--8-------|
A|--6-----6-----|--8--------8--|-----6-----6--|-------6--|
E|-----6-----6--|-----8--------|--------------|-----6----|


[Chorus]

G|--------------|--------------|----------------|-----------|
D|--------------|--8-----8-----|--10------------|--8-8------|
A|--8-----8-----|-----8-----8--|------10--8-----|--------6--|
E|-----8-----8--|--------------|-------------8--|------6----|


[Verse 2]

G|---------------|--------------|--------------|--------------|
D|---------------|--------8-----|--6-----5-----|--8-----------|
A|-5-6-----6-----|--8--------8--|-----6-----6--|--------6-----|
E|------6-----6--|-----8--------|--------------|-----6-----6--|


G|--------------|--------------|--------------|----------|
D|--------------|--------8-----|--6-----5-----|--8-------|
A|--6-----6-----|--8--------8--|-----6-----6--|-------6--|
E|-----6-----6--|-----8--------|--------------|-----6----|


[Chorus]

G|--------------|--------------|----------------|-----------|--------|
D|--------------|--8-----8-----|--10------------|--8-8------|--------|
A|--8-----8-----|-----8-----8--|------10--8-----|--------6--|--5-6-7-|
E|-----8-----8--|--------------|-------------8--|------6----|--------|


G|-------------|--------------|----------------|----------------|
D|-------------|--8-----8-----|--10------------|----------------|
A|-8-----8-----|-----8-----8--|------10--8-----|--6-----6-5-6-7-|
E|----8-----8--|--------------|-------------8--|-----6----------|


G|-------------|--------------|----------------|-----|-----|
D|-------------|--8-----8-----|--10------------|-----|-----|
A|-8-----8-----|-----8-----8--|------10--8-----|--6--|-----|
E|----8-----8--|--------------|-------------8--|-----|--6--|


[Instrumental]

G|--------------|--------------|--------------|--------------|-------------|--------|
D|--------------|--------------|--6-----6-----|--8-----8-----|-------------|--------|
A|--6-----6-----|--8-----8-----|-----6-----6--|-----8-----8--|--6----------|--5-6-7-|
E|-----6-----6--|-----8-----8--|--------------|--------------|-------------|--------|


[Chorus]

G|-------------|--------------|----------------|----------------|
D|-------------|--8-----8-----|--10------------|----------------|
A|-8-----8-----|-----8-----8--|------10--8-----|--6-----6-5-6-7-|
E|----8-----8--|--------------|-------------8--|-----6----------|


G|-------------|--------------|----------------|-----|-----|
D|-------------|--8-----8-----|--10------------|-----|-----|
A|-8-----8-----|-----8-----8--|------10--8-----|--6--|-----|
E|----8-----8--|--------------|-------------8--|-----|--6--|


[Verse 3]

G|--------------|--------------|--------------|-----|
D|--------------|--------8-----|--6-----5-----|--8--|
A|--6-----6-----|--8--------8--|-----6-----6--|-----|
E|-----6-----6--|-----8--------|--------------|-----|


[Outro]

G|--------------|--------------|--------------|--------------|--8--|-----|
D|--------------|--------------|--6-----6-----|--8-----8-----|-----|-----|
A|--6-----6-----|--8-----8-----|-----6-----6--|-----8-----8--|-----|--6--|
E|-----6-----6--|-----8-----8--|--------------|--------------|-----|-----|



**************************

| \ : slide down

**************************

in regular sequence! 
Suggest correction
Give kudos to tab author, rate the tab!
1 2 3 4 5
comments
print report bad tab
guest
You may want to rate the tab now too:
select rating
Wanna post a correction for this tab? Suggest correction