Oops, an error
Loading. Please wait.

Trapped In A Matchstick Man Tab

by Emma
250 views 1 this week
no commentswrite comment
1 2 3 4 5
please rate
add to favorites
launch autoscroll
font size
0
reset
how to read this tab
guitar tuner
Autoscroll
slow
fast
+/-
esc
set tempo
stop
Help us to improve Ultimate-Guitar.com Take our survey!
×
Contributor
DROP D TUNING


x-palm mute
~-ring out

Intro (Repeat 2x)
E----------------------------------------------------------------------|
B-6------6------6---6------6-------6----6------6------6----6-----------|
G---9--9---9--9---9---7--7---7--7----7----9--9---9--9---9--7-----------|
D----------------------------------------------------------0-----------|
A----------------------------------------------------------------------|
D----------------------------------------------------------------------|

verse
E-------------------------------------------------|
B------66666-66666--66666-66666-------------------|
G------99999-77777--99999-77777-------------------|
D-00---88888-88888--88888-88888-------------------|
A-00---88888-88888--88888-88888-------------------|
D-00---88888-88888--88888-88888-------------------|
  xx
verse cont.
E-------------------------------------------------------------------|
B-66666-66666-66666-66666-------------------------------------------|
G-99999-99999-77777-77777-------------------------------------------|
D-00000-00000-00000-00000-------------------------------------------|
A-00000-00000-00000-00000-------------------------------------------|
D-00000-00000-00000-00000-------------------------------------------|
(repeat whole riff twice)

verse (partII)
E----------------------------------------------------------------------|
B---6-6-----6-6-6----6-6----6-6-6----6-6----6-6-6----6-6----6-6-6------|
G---9-9-----9-9-9----9-9----9-9-9----7-7----7-7-7----7-7----7-7-7------|
D-88----888-------88----888--------00----000-------00----000-----------|
A-88----888-------88----888--------00----000-------00----000-----------|
D-88----888-------88----888--------00----000-------00----000-----------|
  xx    xxx       xx    xxx        xx    xxx       xx    xxx
(twice also)

chorus (listen for strumming pattern)
E------------------------------------------------------------------|
B------------------------------------------------------------------|
G------------------------------------------------------------------|
D-88---10-10----77--000-000-000-0000-000-000-000-000---------------|
A-88---10-10----77--000-000-000-0000-000-000-000-000---------------|
D-88---10-10----77--000-000-000-0000-000-000-000-000---------------|
                    xxx xxx xxx xxxx xxx xxx xxx xxx
repeat 3 times on third time instead of 0 go to this riff
E----------------------------------------------------------------|
B----------------------------------------------------------------|
G----------------------------------------------------------------|
D-88-888888-88-888888-00-000000-00-000000------------------------|
A-88-888888-88-888888-00-000000-00-000000------------------------|
D-88-888888-88-888888-00-000000-00-000000------------------------|

verse part II

chorus

bridge
E---------------------------------------------------|
B---------------------------------------------------|
G---------------------------------------------------|
D---------------------------------------------------|
A-88-88-8-88-88-8-00-00-0-00-00-0-------------------|
D-88-88-8-88-88-8-00-00-0-00-00-0-------------------|
  ~~ ~~ ~ ~~ ~~ ~ ~~ ~~ ~ ~~ ~~ ~
Repeat twice on last 0 ring out long


Bridge part II (listen for strumming)
E----------------------------------------------------------------------------|
B----------------------------------------------------------------------------|
G-999--10-10-10--12-14-12-10--9999-7777-5555-7777--10-10-10-10-10-10---------|
D-xxx--x--x--x---x--x--x--x---xxxx-xxxx-xxxx-xxxx--x--x--x--x--x--x----------|
A-777--8--8--8---10-12-10-8---7777-5555-7777-5555--8--8--8--8--8--8----------|
D----------------------------------------------------------------------------|

E------------------------------------|
B------------------------------------|
G-12-14-12-10------------------------|
D-x--x--x--x-------------------------|
A-10-12-10-8-------------------------|
D------------------------------------|

chorus

ending
E--------------------------------------------------------|
B------------------------------------6-------------------|
G------------------------------------9-------------------|
D-00-0000-00-0000-00-0000-00-0000------------------------|
A-00-0000-00-0000-00-0000-00-0000------------------------|
D-00-0000-00-0000-00-0000-00-0000------------------------|
  xx xxxx xx xxxx xx xxxx xx xxxx    ~~~~~~~~~~~~~~~~~~~
Suggest correction new What's this?
You can suggest a correction to this tab. Community and Mods will review your correction and vote to approve or reject it.
comments
We did not receive enough feedback on this tab! Please rate:
print report bad tab
1 2 3 4 5
guest
You may want to rate the tab now too:
select rating
Please do not post tabs as comments. Select "correction" instead!