Oops, an error
Loading. Please wait.

Fear The Future tab

version 2
version 2

Whole song

413 views 3 this week
no commentswrite comment
1 2 3 4 5
1 last vote to show rating
add to favorites
×
Save as Personal and add changes to this tab that will be seen only by you. Learn more ›
×
You can save this tab as Personal to edit and correct it or add notes. All changes will be seen only by you. Learn more »
launch autoscroll
font size
0
reset
how to read this tab
guitar tuner
edit
Autoscroll
slow
fast
+/-
esc
set tempo
stop
To avoid tuning half step down put onto cappo 4 and tune G down  by a half step

                                    
d#|-----0---|---------|-----0---|-----0---|        
A#|---------|---------|---------|---------|         
F#|---2---2-|---1-2-1-|---2---2-|---2---2-|         
C#|-0-------|-2-------|-4-------|-4-------|         
G#|---------|---------|---------|---------|         
D#|---------|---------|---------|---------|         


  Cappo 4 

g#|---------|---------|---------|---------|  
D#|-----0---|---------|-----0---|-----0---|
A#|---------|---------|---------|---------|
F#|---2---2-|---1-2-1-|---2---2-|---2---2-|
C#|-0-------|-2-------|-4-------|-4-------|
G#|---------|---------|---------|---------| 


Picking is sustained throughout untill the end when

They say there's strength in numbers
And I was weak as one
But now that we're together
Look how strong I have become

I used to fight alone
Now I fight for me and you
And the people who upset you
Are now my enemies too (Ooooooh)

And when I start to miss you
I go to sleep and then
I'm another day closer
To seeing you again

And I want you to remember this
When you put yourself down
I cannot fear my future
Now that I have you around (Ohhhhhhh)

And I want you to remember this
When you put yourself down
I cannot fear my future
Now that I have you around
And I want you to remember this
When you put yourself down
I cannot fear my future
Now that I have you around (Ohhhhhh)


End Tab:


d#|-5-4-2---|-5-7-9/7/5-|-5-4-2---|-5-7-9/7/5-|        
A#|---------|-----------|---------|-----------|         
F#|---------|-----------|---------|-----------|         
C#|---------|-----------|---------|-----------|         
G#|---------|-----------|---------|-----------|         
D#|---------|-----------|---------|-----------|         


  Cappo 4 

g#|---------|-----------|---------|-----------|  
D#|-5-4-2---|-5-7-9/7/5-|-5-4-2---|-5-7-9/7/5-|
A#|---------|-----------|---------|-----------|
F#|---------|-----------|---------|-----------|
C#|---------|-----------|---------|-----------|
G#|---------|-----------|---------|-----------|
Suggest correction
Creating personal tab
Creating personal tab
You can edit any tab online and save it as your Personal.

You can edit, replace or remove any tab part or add personal notes – all changes will be seen only by you.

Personal tabs can be accessed anytime from any device, even offline.
Learn more »
Give kudos to tab author, rate the tab!
1 2 3 4 5
comments
print report bad tab
guest
You may want to rate the tab now too:
select rating
Wanna post a correction for this tab? Suggest correction