Oops, an error
Loading. Please wait.

Tallest Tree Tab

30 views 1 this week
no commentswrite comment
1 2 3 4 5
3 more votes to show rating
add to favorites
×
Save as Personal and add changes to this tab that will be seen only by you. Learn more ›
×
You can save this tab as Personal to edit and correct it or add notes. All changes will be seen only by you. Learn more »
save as personal
new!
launch autoscroll
font size
0
reset
how to read this tab
guitar tuner
Autoscroll
slow
fast
+/-
esc
set tempo
stop
Author
Difficulty
novice
-------------------------------------------------------------------------------
                             Tallest Tree - Emma Hitch
-------------------------------------------------------------------------------
Tabbed by:
E-mail:

Tuning: standard

listen for timing

guitar solo part

e|-0-0-3-5-3-0-0---0-0-3-5-3-0-5-3-0-0-3-5-3-0-0----0-0-3-5-3-0-7-8-7-5-3----|
B|---------------3--------------------------------3--------------------------|
G|---------------------------------------------------------------------------|
D|---------------------------------------------------------------------------|
A|---------------------------------------------------------------------------|
E|---------------------------------------------------------------------------|

chorus

e|-0-3-5-0---------0-3-5-7-5---------0-3-5-0-3-5-3-3--0-3-5-7-5--------------|
B|---------0-3-5-0-----------0-3-5-0-----------------------------------------|
G|---------------------------------------------------------------------------|
D|---------------------------------------------------------------------------|
A|---------------------------------------------------------------------------|
E|---------------------------------------------------------------------------|



************************************

| /   slide up
| \   slide down
| h   hammer-on
| p   pull-off
| ~   vibrato
| +   harmonic
| x   Mute note
| b   Bend
| pb  Pre-bend
| br  Bend release
| pbr Pre-bend release
| brb Bend release bend

************************************
Suggest correction
Give kudos to tab author, rate the tab!
1 2 3 4 5
comments
print report bad tab
guest
You may want to rate the tab now too:
select rating
Wanna post a correction for this tab? Suggest correction