Oops, an error
Loading. Please wait.

1000 Sundowns tab

version 1
version 1

Whole song

  • This is based off of the live version Emma plays a... Show more
355 views 15 this week
no commentswrite comment
1 2 3 4 5
x 3
add to favorites
×
Save as Personal and add changes to this tab that will be seen only by you. Learn more ›
×
You can save this tab as Personal to edit and correct it or add notes. All changes will be seen only by you. Learn more »
launch autoscroll
font size
0
reset
how to read this tab
guitar tuner
edit
Autoscroll
slow
fast
+/-
esc
set tempo
stop
About this tab version
This is based off of the live version Emma plays and has the capo on the 3rd fret. You can change the capo according to your vocal range if you wish. Was this info helpful? Yes No
[Intro]
e|---------------------------------------------------------------------------------------------|
B|------0--------1--------3-----------7h8-----8---8------7-----5-----3-------1-1-1----1--1p0---|
G|-----0---0----0---0----0---0----0----------0--------0------0-----0-----0---0-0-0-0--0--0-----|
D|---------------------------------------------------------------------------------------------|
A|------------0-------2--------3----5------7-----7--------5-----3-----2-----0--------0---------|
E|---3-----------------------------------------------------------------------------------------|

[Verse]
e|-----------------------------------------------------------------------------|
B|--------0--------1--------3--------5-----------8--------7--------5---5---5---|
G|------0---0----0---0----0---0----0---0-------0---0----0---0----0---0---0---0-|
D|-----------------------------------------------------------------------------|
A|-------------0---------2-------3-----------7--------5--------3---------------|
E|----3------------------------------------------------------------------------|(x4)

[Chorus]
e|---------------------------------------------------------------------------|
B|----0----1------8--8-8-8-8----8-8-8-8-8-8-8--------------------------------|
G|------0----0------0-0-0-0----0-0-0-0-0-0-0-0-------------------------------|
D|---------------------------------------------------------------------------|
A|---------0------7----------------------------------------------------------|
E|----3----------------------8-----------------------------------------------|

e|---------------------------------------------------------------------------|
B|----0----1----3----7-------8------8--------8----8---7----5---5---5---5-----|
G|------0----0----0----0---0---0--0---0----0---0----0---0----0---0---0--0----|
D|---------------------------------------------------------------------------|
A|---------0----2----5---7------7--------7--------7---5----3-----------------|
E|----3----------------------------------------------------------------------|

[Instrumental]
e|---------------------------------------------------------------------------------------------|
B|------0--------1--------3-----------7h8-----8---8------7-----5-----3-------1-1-1----1--1p0---|
G|-----0---0----0---0----0---0----0----------0--------0------0-----0-----0---0-0-0-0--0--0-----|
D|---------------------------------------------------------------------------------------------|
A|------------0-------2--------3----5------7-----7--------5-----3-----2-----0--------0---------|
E|---3-----------------------------------------------------------------------------------------|

[Verse]
e|-----------------------------------------------------------------------------|
B|--------0--------1--------3--------5-----------8--------7--------5---5---5---|
G|------0---0----0---0----0---0----0---0-------0---0----0---0----0---0---0---0-|
D|-----------------------------------------------------------------------------|
A|-------------0---------2-------3-----------7--------5--------3---------------|
E|----3------------------------------------------------------------------------|(x4)

[Chorus]
e|---------------------------------------------------------------------------|
B|----0----1------8--8-8-8-8----8-8-8-8-8-8-8--------------------------------|
G|------0----0------0-0-0-0----0-0-0-0-0-0-0-0-------------------------------|
D|---------------------------------------------------------------------------|
A|---------0------7----------------------------------------------------------|
E|----3----------------------8-----------------------------------------------|

e|---------------------------------------------------------------------------|
B|----0----1----3----7-------8------8--------8----8---7----5---5---5---5-----|
G|------0----0----0----0---0---0--0---0----0---0----0---0----0---0---0--0----|
D|---------------------------------------------------------------------------|
A|---------0----2----5---7------7--------7--------7---5----3-----------------|
E|----3----------------------------------------------------------------------|

[Instrumental]
e|---------------------------------------------------------------------------------------------|
B|------0--------1--------3-----------7h8-----8---8------7-----5-----3-------1-1-1----1--1p0---|
G|-----0---0----0---0----0---0----0----------0--------0------0-----0-----0---0-0-0-0--0--0-----|
D|---------------------------------------------------------------------------------------------|
A|------------0-------2--------3----5------7-----7--------5-----3-----2-----0--------0---------|
E|---3-----------------------------------------------------------------------------------------|

[Outro]
e|---------------------------------------------------------------------------|
B|--------0---------1---------3-----5-------8----7----0----------------------|
G|------0---0-----0---0-----0---0--------------------------------------------|
D|---------------------------------------------------------------------------|
A|-------------0---------2----------3-------7----5----3----------------------|
E|----3----------------------------------------------------------------------|


************************************

| h  Hammer-on
| p  Pull-off

************************************

            
            
Suggest correction
Creating personal tab
Creating personal tab
You can edit any tab online and save it as your Personal.

You can edit, replace or remove any tab part or add personal notes – all changes will be seen only by you.

Personal tabs can be accessed anytime from any device, even offline.
Learn more »
Give kudos to tab author, rate the tab!
1 2 3 4 5
comments
print report bad tab
guest
Wanna post a correction for this tab? Suggest correction