Oops, an error
Loading. Please wait.

God Will Make A Way Bass Tab

1,965 views 1 this week
no commentswrite comment
1 2 3 4 5
please rate
add to favorites
launch autoscroll
font size
0
reset
guitar tuner
Autoscroll
slow
fast
+/-
esc
set tempo
stop
Help us to improve Ultimate-Guitar.com Take our survey!
×
Author
Difficulty
----------------------------------------------------------------------------
	     God Will Make A Way - Emmanuel Worship                  
----------------------------------------------------------------------------
Hey boys and girls, heres your Bass for the Christian hit!
Tabbed By : MyChemGuitarist
e-mail: sk8er_freak13@hotmail.com

Tuning:Standard E
Intro
G|----------------------------------------------------------------------|
D|----------------------------------------------------------------------|
A|---------------3-3-3-3----------2-2-2-2-------------------------------|
E|---3-3-3-3--0-----------0-0-0-0---------------------------------------|

G|----------------------------------------------------------------------|
D|----------------------------------------------------------------------|
A|---------------3-3-3-3----------2-2-2-2-------------------------------|
E|---3-3-3-3--0-----------0-0-0-0---------------------------------------|

Verse 1
G|----------------------------------------------------------------------|
D|----------------------------------------------------------------------|
A|------------3-3-3-3---------5-5-5-5-----------------------------------|
E|---3-3-3-3----------7-7-7-7-------------------------------------------|x4
No need to worry about yesterday...no need to panic...

Bridge
G|-------------------------------------------------------------------------|
D|-------------------------------------------------------------------------|
A|------------3x3x3x3x--------5x5x5x5x-------------------------------------|
E|---3x3x3x3x---------7x7x7x7x---------------------------------------------|
A raging sea, a consuming fire, is coming cant you see the horizon.

G|-------------------------------------------------------------------------|
D|-------------------------------------------------------------------------|
A|------------3x3x3x3x--------5x5x5x5x-------------------------------------|
E|---3x3x3x3x---------7x7x7x7x---------------------------------------------|
Its coming god will make a way!!!!!!

Chorus
G|----------------------------------------------------------------------|
D|----------------------------------------------------------------------|
A|---------------3-3-3-3----------2-2-2-2-------------------------------|
E|---3-3-3-3--0-----------0-0-0-0---------------------------------------|x4
God will make a way for me!! God will make a way to....

Verse 2
G|----------------------------------------------------------------------|
D|----------------------------------------------------------------------|
A|------------3-3-3-3---------5-5-5-5-----------------------------------|
E|---3-3-3-3----------7-7-7-7-------------------------------------------|x4
No need to worry about yesterday...no need to panic...

Bridge
G|-------------------------------------------------------------------------|
D|-------------------------------------------------------------------------|
A|------------3x3x3x3x--------5x5x5x5x-------------------------------------|
E|---3x3x3x3x---------7x7x7x7x---------------------------------------------|
A raging sea, a consuming fire, is coming cant you see the horizon.

G|-------------------------------------------------------------------------|
D|-------------------------------------------------------------------------|
A|------------3x3x3x3x--------5x5x5x5x-------------------------------------|
E|---3x3x3x3x---------7x7x7x7x---------------------------------------------|
Its coming god will make a way!!!!!!


Chorus
G|----------------------------------------------------------------------|
D|----------------------------------------------------------------------|
A|---------------3-3-3-3----------2-2-2-2-------------------------------|
E|---3-3-3-3--0-----------0-0-0-0---------------------------------------|x4
God will make a way for me!! God will make a way to....

Build Up
G|-------------------------------------------------------------------------|
D|-------------------------------------------------------------------------|
A|------------3x3x3x3x--------5x5x5x5x-------------------------------------|
E|---3x3x3x3x---------7x7x7x7x---------------------------------------------|
God will make a way...God will make a way...god will make a way. GOD WILL!!!

Outro
G|----------------------------------------------------------------------|
D|----------------------------------------------------------------------|
A|---------------3-3-3-3----------2-2-2-2-------------------------------|
E|---3-3-3-3--0-----------0-0-0-0---------------------------------------|

G|----------------------------------------------------------------------|
D|----------------------------------------------------------------------|
A|---------------3-3-3-3----------2-2-2-2-------------------------------|
E|---3-3-3-3--0-----------0-0-0-0---------------------------------------|

Sweet as guys!!! Check me out sometime! or request any song you like!!!

| /  slide up
| \  slide down
| h  hammer-on
| p  pull-off
| ~  vibrato
| +  harmonic
| x  Mute note
============================================================================
Suggest correction
Give kudos to tab author, rate the tab!
1 2 3 4 5
comments
print report bad tab
guest
You may want to rate the tab now too:
select rating
Please do not post tabs as comments. Select "correction" instead!