Oops, an error
Loading. Please wait.

God Will Make A Way Tab

3,889 views 6 this week
no commentswrite comment
1 2 3 4 5
3 more votes to show rating
add to favorites
launch autoscroll
font size
0
reset
how to read this tab
guitar tuner
Autoscroll
slow
fast
+/-
esc
set tempo
stop
Help us to improve Ultimate-Guitar.com Take our survey!
×
Author
Difficulty
Hey guys, another Emmanuel Worship song for yall! Enjoy!
sk8er_freak13@hotmail.com

X = Scratch
P = Palm Muted

Intro - Guitar No Distortion!
   E|-------------------------------------|
   B|-------------------------------------|
   G|-------------------------------------|
   D|-------------5-5-----------4-4-------|
   A|----5-5--xx--3-3--2-2--xx--2-2-------|
   E|----3-3--xx-------0-0--xx------------| x2

Verse 1 - Distorted
   E|-------------------------------------|
   B|-------------------------------------|
   G|-------------------------------------|
   D|-------5555--9999--7777--------------|
   A|-5555--3333--7777--5555--------------|
   E|-3333--------------------------------|x2

    No need to worry....


   E|-------------------------------------|
   B|-------------------------------------|
   G|-------------------------------------|
   D|-------5555--9999--7777--------------|
   A|-5555--3333--7777--5555--------------|
   E|-3333--------------------------------|x2
    No need to panic, this life....

Bridge

   E|---------------------------------------|
   B|---------------------------------------|
   G|---------------------------------------|
   D|-----------5p5p5p5p--9p9p9p9--7p7p7p7p-|
   A|-5p5p5p5p--3p3p3p3p--7p7p7p7--5p5p5p5p-|
   E|-3p3p3p3p------------------------------|
   A raging sea, a consuming fire.....horizon

   E|---------------------------------------|
   B|---------------------------------------|
   G|---------------------------------------|
   D|-----------5p5p5p5p--9p9p9p9--7p7p7p7p-|
   A|-5p5p5p5p--3p3p3p3p--7p7p7p7--5p5p5p5p-|
   E|-3p3p3p3p------------------------------|
   Look out to the.....its coming god'l make a way

  Chorus, heavy distortion, played faster then verse
   E|-------------------------------------|
   B|-------------------------------------|
   G|-------------------------------------|
   D|-------5555--9999--7777--------------|
   A|-5555--3333--7777--5555--------------|
   E|-3333--------------------------------|x2
God will make a way for me, god will make a way to the sea, even bring the mountains 
for me.....

   E|-------------------------------------|
   B|-------------------------------------|
   G|-------------------------------------|
   D|-------5555--9999--7777--------------|
   A|-5555--3333--7777--5555--------------|
   E|-3333--------------------------------|x2

Cos nothin is to hard for him, he created everything
hes my lord my god my victory.. he'll make a way for me.

Riff
   E|-------------------------------------|
   B|-------------------------------------|
   G|-------------------------------------|
   D|-------------5-5-----------4-4-------|
   A|----5-5--xx--3-3--2-2--xx--2-2-------|
   E|----3-3--xx-------0-0--xx------------| x2


Verse 2 - Distorted
   E|-------------------------------------|
   B|-------------------------------------|
   G|-------------------------------------|
   D|-------5555--9999--7777--------------|
   A|-5555--3333--7777--5555--------------|
   E|-3333--------------------------------|x2

    No need to worry....


   E|-------------------------------------|
   B|-------------------------------------|
   G|-------------------------------------|
   D|-------5555--9999--7777--------------|
   A|-5555--3333--7777--5555--------------|
   E|-3333--------------------------------|x2
    No need to panic, this life....

Bridge

   E|---------------------------------------|
   B|---------------------------------------|
   G|---------------------------------------|
   D|-----------5p5p5p5p--9p9p9p9--7p7p7p7p-|
   A|-5p5p5p5p--3p3p3p3p--7p7p7p7--5p5p5p5p-|
   E|-3p3p3p3p------------------------------|
   A raging sea, a consuming fire.....horizon

   E|---------------------------------------|
   B|---------------------------------------|
   G|---------------------------------------|
   D|-----------5p5p5p5p--9p9p9p9--7p7p7p7p-|
   A|-5p5p5p5p--3p3p3p3p--7p7p7p7--5p5p5p5p-|
   E|-3p3p3p3p------------------------------|
   Look out to the.....its coming god'l make a way

  Chorus, heavy distortion, played faster then verse
   E|-------------------------------------|
   B|-------------------------------------|
   G|-------------------------------------|
   D|-------5555--9999--7777--------------|
   A|-5555--3333--7777--5555--------------|
   E|-3333--------------------------------|x2
God will make a way for me, god will make a way to the sea, even bring the mountains 
for me.....

   E|-------------------------------------|
   B|-------------------------------------|
   G|-------------------------------------|
   D|-------5555--9999--7777--------------|
   A|-5555--3333--7777--5555--------------|
   E|-3333--------------------------------|x2

Cos nothin is to hard for him, he created everything
hes my lord my god my victory.. he'll make a way for me.

Riff
   E|-------------------------------------|
   B|-------------------------------------|
   G|-------------------------------------|
   D|-------------5-5-----------4-4-------|
   A|----5-5--xx--3-3--2-2--xx--2-2-------|
   E|----3-3--xx-------0-0--xx------------| x2

Bridge 2
   E|-------------------------------------|
   B|-------------------------------------|
   G|-------------------------------------|
   D|-------5555--9999--7777--------------|
   A|-5555--3333--7777--5555--------------|
   E|-3333--------------------------------|
God will make a way....God will make a way
God will make a way....god will make a way!!!


Chorus - Slow start, built up into heavy chorus
   E|-3--0--0-------3--0--0----------------|
   B|-3--1--0-------3--1--0----------------|
   G|-0--0--2-------0--0--2----------------|
   D|-0--2--3-------0--2--3----------------|
   A|-2--3--3-------2--3--3----------------|
   E|-3--x--0-------3--x--0----------------|
God will..         Down for me...

   E|-------------------------------------|
   B|-------------------------------------|
   G|-------------------------------------|
   D|-------5555--9999--7777--------------|
   A|-5555--3333--7777--5555--------------|
   E|-3333--------------------------------|x2

Cos nothin is to hard for him, he created everything
hes my lord my god my victory.. he'll make a way for me.


Outro
   E|-------------------------------------|
   B|-------------------------------------|
   G|-------------------------------------|
   D|-------------5-5-----------4-4-------|
   A|----5-5--xx--3-3--2-2--xx--2-2-------|
   E|----3-3--xx-------0-0--xx------------| x2

Enjoy!!
Suggest correction
Give kudos to tab author, rate the tab!
1 2 3 4 5
comments
print report bad tab
guest
You may want to rate the tab now too:
select rating
Wanna post a correction for this tab? Suggest correction