Oops, an error
Loading. Please wait.

Jesus Thing Bass Tab

52 views 1 this week
no commentswrite comment
1 2 3 4 5
3 more votes to show rating
add to favorites
launch autoscroll
font size
0
reset
guitar tuner
Autoscroll
slow
fast
+/-
esc
set tempo
stop
Help us to improve Ultimate-Guitar.com Take our survey!
×
Author
Difficulty
----------------------------------------------------------------------------
			 Jesus Thing - Emmanuel Worship
----------------------------------------------------------------------------

Tabbed By : MyChemGuitarist
e-mail: Sk8er_freak13@hotmail.com

Tuning: Standard E
Intro
G|-------------------------------------------------------------------------|
D|-------------------------------------------------------------------------|
A|-----------3-3-3-3--0-0-0-0----------------------------------------------|
E|--3-3-3-3--------------------1-1-1-1-------------------------------------|
My life, is now a jesus thing....I've been captured by...

G|-------------------------------------------------------------------------|
D|-------------------------------------------------------------------------|
A|-----------3-3-3-3--0-0-0-0----------------------------------------------|
E|--3-3-3-3--------------------1-1-1-1-------------------------------------|
My god has set me free to sing so hear i go WOAH!!!

Bridge
G|-------------------------------------------------------------------------|
D|-------------------------------------------------------------------------|
A|-----------3x3x3x3x--0x0x0x0x--------------------------------------------|
E|--3x3x3x3x----------------------1x1x1x1x---------------------------------|
The life i used to lead is not the life for me, the old has passed...

Chorus
G|-------------------------------------------------------------------------|
D|-------------------------------------------------------------------------|
A|-----------3-3-3-3--0-0-0-0----------------------------------------------|
E|--3-3-3-3--------------------1-1-1-1-------------------------------------|
My life, is now a jesus thing....I've been captured by...

G|-------------------------------------------------------------------------|
D|-------------------------------------------------------------------------|
A|-----------3-3-3-3--0-0-0-0----------------------------------------------|
E|--3-3-3-3--------------------1-1-1-1-------------------------------------|
My god has set me free to sing so hear i go WOAH!!!

It then repeats 2 times. which is the whole song, basic huh?

| /  slide up
| \  slide down
| h  hammer-on
| p  pull-off
| ~  vibrato
| +  harmonic
| x  Mute note
============================================================================
Suggest correction
Give kudos to tab author, rate the tab!
1 2 3 4 5
comments
print report bad tab
guest
You may want to rate the tab now too:
select rating
Wanna post a correction for this tab? Suggest correction