Oops, an error
Loading. Please wait.

Regeneration Bass Tab

83 views 1 this week
no commentswrite comment
1 2 3 4 5
3 more votes to show rating
add to favorites
launch autoscroll
font size
0
reset
guitar tuner
Autoscroll
slow
fast
+/-
esc
set tempo
stop
Help us to improve Ultimate-Guitar.com Take our survey!
×
Author
Difficulty
This is a christian rock song, might be a lil out but nothing to serious, still
sounds just like it.
Need more Emmanuel Worship?
Guitar Tabs coming soon.
Email me at sk8er_freak13@hotmail.com
Standard tuning for bass.
http://www.emmanuelworship.com.au/

Intro- Repeat as needed. Bass comes in after 2 riffs
G-------------------------------------------------------------------------| 
D----5--------------------5-----------------------------------------------| 
A-------7--5--7--5--0--------7--5--7--6--5--------------------------------| 
E----------------------5--------------------7--6--5-----------------------| 


G-------------------------------------------------------------------------| 
D----5--------------------5-----------------------------------------------| 
A-------7--5--7--5--0--------7--5--7--6--5--------------------------------| 
E----------------------5--------------------7--6--5-----------------------|




Bridge - Repeats about 4 or 5 times
G-------------------------------------------------------------------------| 
D-------------------------------------------------------------------------| 
A----55555----------------777778888877777--55555---------777778888877777--| 
E-----------55555--55555--------------------------55555-------------------|




Intro comes back into it before the chorus
G-------------------------------------------------------------------------| 
D----5--------------------5-----------------------------------------------| 
A-------7--5--7--5--0--------7--5--7--6--5--------------------------------| 
E----------------------5--------------------7--6--5-----------------------| 


G-------------------------------------------------------------------------| 
D----5--------------------5-----------------------------------------------| 
A-------7--5--7--5--0--------7--5--7--6--5--------------------------------| 
E----------------------5--------------------7--6--5-----------------------|




It then moves into the chorus which is -
G-------------------------------------------------------------------------| 
D-------------------------------------------------------------------------| 
A--------------------------------------------------5555-------------------| 
E--0-0-0-0-0-0-0-0-0-0-0-0-5-5-5-5-5-5-5-5-5-5-5-5------5555--------------|

G-------------------------------------------------------------------------| 
D-------------------------------------------------------------------------| 
A--------------------------------------------------5555-------------------| 
E--0-0-0-0-0-0-0-0-0-0-0-0-5-5-5-5-5-5-5-5-5-5-5-5------5555--------------|



Then moves back into the bridge. singing "It's time for, regeneration"
G-------------------------------------------------------------------------| 
D----5--------------------5-----------------------------------------------| 
A-------7--5--7--5--0--------7--5--7--6--5--------------------------------| 
E----------------------5--------------------7--6--5-----------------------| 


G-------------------------------------------------------------------------| 
D----5--------------------5-----------------------------------------------| 
A-------7--5--7--5--0--------7--5--7--6--5--------------------------------| 
E----------------------5--------------------7--6--5-----------------------|



Bridge - Repeats about 4 or 5 times again
G-------------------------------------------------------------------------| 
D-------------------------------------------------------------------------| 
A----55555----------------777778888877777--55555---------777778888877777--| 
E-----------55555--55555--------------------------55555-------------------|



It then moves into the chorus which is -
G-------------------------------------------------------------------------| 
D-------------------------------------------------------------------------| 
A--------------------------------------------------5555-------------------| 
E--0-0-0-0-0-0-0-0-0-0-0-0-5-5-5-5-5-5-5-5-5-5-5-5------5555--------------|

G-------------------------------------------------------------------------| 
D-------------------------------------------------------------------------| 
A--------------------------------------------------5555-------------------| 
E--0-0-0-0-0-0-0-0-0-0-0-0-5-5-5-5-5-5-5-5-5-5-5-5------5555--------------| 

G-------------------------------------------------------------------------| 
D-------------------------------------------------------------------------| 
A--------------------------------------------------5555-------------------| 
E--0-0-0-0-0-0-0-0-0-0-0-0-5-5-5-5-5-5-5-5-5-5-5-5------5555--------------|

G-------------------------------------------------------------------------| 
D-------------------------------------------------------------------------| 
A--------------------------------------------------5555-------------------| 
E--0-0-0-0-0-0-0-0-0-0-0-0-5-5-5-5-5-5-5-5-5-5-5-5------5555--------------|


Intro comes back into it before the chorus
G-------------------------------------------------------------------------| 
D----5--------------------5-----------------------------------------------| 
A-------7--5--7--5--0--------7--5--7--6--5--------------------------------| 
E----------------------5--------------------7--6--5-----------------------| 


G-------------------------------------------------------------------------| 
D----5--------------------5-----------------------------------------------| 
A-------7--5--7--5--0--------7--5--7--6--5--------------------------------| 
E----------------------5--------------------7--6--5-----------------------|

G-------------------------------------------------------------------------| 
D----5--------------------5-----------------------------------------------| 
A-------7--5--7--5--0--------7--5--7--6--5--------------------------------| 
E----------------------5--------------------7--6--5-----------------------| 


G-------------------------------------------------------------------------| 
D----5--------------------5-----------------------------------------------| 
A-------7--5--7--5--0--------7--5--7--6--5--------------------------------| 
E----------------------5--------------------7--6--5-0---------------------|

Finish
Suggest correction
Give kudos to tab author, rate the tab!
1 2 3 4 5
comments
print report bad tab
guest
You may want to rate the tab now too:
select rating
Wanna post a correction for this tab? Suggest correction