Oops, an error
Loading. Please wait.

Regeneration Tab

version 1
version 1

Whole song

109 views 1 this week
no commentswrite comment
1 2 3 4 5
please rate
add to favorites
launch autoscroll
font size
0
reset
how to read this tab
guitar tuner
Autoscroll
slow
fast
+/-
esc
set tempo
stop
Help us to improve Ultimate-Guitar.com Take our survey!
×
Author
Difficulty
Hey guys, promised you some Guitar versions to Emmanuel Worship, so heres the first of many!!
Need particular songs? check me out at 
http://profile.ultimate-guitar.com/MyChemGuitarist/

Leave me your personal requests!

Intro, just guitar
   E|-------------------------------------|
   B|-------------------------------------|
   G|-------------------------------------|
   D|-5--------------5--------------------|
   A|---7-5-7-5--------7-5-7-6-5----------|
   E|-----------7-5---------------7-6-5---| x4

   Verse 1
   E|----------------------------------------|
   B|----------------------------------------|
   G|----------------------------------------|
   D|--77777--77777---------9999991010101010-|
   A|--55555--55555--77777--7777778-8-8-8-8--|
   E|----------------55555-------------------| x2
              You are my god...

   E|----------------------------------------|
   B|----------------------------------------|
   G|----------------------------------------|
   D|--77777--77777---------9999991010101010-|
   A|--55555--55555--77777--7777778-8-8-8-8--|
   E|----------------55555-------------------| x2
              I've seen your....
   Chorus
   E|---------------------------------------|
   B|---------------------------------------|
   G|---------------------------------------|
   D|--22222222-55555555-77777777-7777------|
   A|--22222222-55555555-77777777-55557777--|
   E|--00000000-33333333-55555555-----5555--|
       oh god we....               coz we are..

   E|---------------------------------------|
   B|---------------------------------------|
   G|---------------------------------------|
   D|--22222222-55555555-77777777-7777------|
   A|--22222222-55555555-77777777-55557777--|
   E|--00000000-33333333-55555555-----5555--|

      and all your children...    gonna shout...
   Intro 2
   E|-------------------------------------|
   B|-------------------------------------|
   G|-------------------------------------|
   D|-5--------------5--------------------|
   A|---7-5-7-5--------7-5-7-6-5----------|
   E|-----------7-5---------------7-6-5---|x2

   Verse 2
   E|----------------------------------------|
   B|----------------------------------------|
   G|----------------------------------------|
   D|--77777--77777---------9999991010101010-|
   A|--55555--55555--77777--7777778-8-8-8-8--|
   E|----------------55555-------------------| x2
              You are my god...

   E|----------------------------------------|
   B|----------------------------------------|
   G|----------------------------------------|
   D|--77777--77777---------9999991010101010-|
   A|--55555--55555--77777--7777778-8-8-8-8--|
   E|----------------55555-------------------| x2
              I've seen your....

   Bridge
   E|-------------------------------------|
   B|-------------------------------------|
   G|-------------------------------------|
   D|-77777777----------99999999----------|
   A|-55555555-77777777-77777777----------|
   E|----------55555555-------------------| x3
      whos gonna stand..  whos gonna raise..

   1!!! 2!!! 3!!! 4!!!
   E|-------------------------------------|
   B|-------------------------------------|
   G|-------------------------------------|
   D|-5--------------5--------------------|
   A|---7-5-7-5--------7-5-7-6-5----------|
   E|-----------7-5---------------7-6-5---|x2

  Chorus - This chorus goes repeats 4 times
   E|---------------------------------------|
   B|---------------------------------------|
   G|---------------------------------------|
   D|--22222222-55555555-77777777-7777------|
   A|--22222222-55555555-77777777-55557777--|
   E|--00000000-33333333-55555555-----5555--|
       oh god we....               coz we are..

   E|---------------------------------------|
   B|---------------------------------------|
   G|---------------------------------------|
   D|--22222222-55555555-77777777-7777------|
   A|--22222222-55555555-77777777-55557777--|
   E|--00000000-33333333-55555555-----5555--| 

      and all your children...    gonna shout...
   Outro
   E|-------------------------------------|
   B|-------------------------------------|
   G|-------------------------------------|
   D|-5--------------5--------------------|
   A|---7-5-7-5--------7-5-7-6-5----------|
   E|-----------7-5---------------7-6-5---|x4

Finished!

Suggest correction
Give kudos to tab author, rate the tab!
1 2 3 4 5
comments
print report bad tab
guest
You may want to rate the tab now too:
select rating
Please do not post tabs as comments. Select "correction" instead!