Oops, an error
Loading. Please wait.

Solitary Motions Bass Tab

by Emmi
396 views 1 this week
no commentswrite comment
1 2 3 4 5
3 more votes to show rating
add to favorites
launch autoscroll
font size
0
reset
guitar tuner
Autoscroll
slow
fast
+/-
esc
set tempo
stop
Help us to improve Ultimate-Guitar.com Take our survey!
×
ARTIST: EMMI
SONG: SOLITARY MOTIONS

STANDARD TUNE

TABBED BY MEELIS SAARD m_saard@hotmail.com

Symbols
x = mute
h = hammer on
p = pull off
/ = slide up
* = pull from that string

bass steps in 0.53

	Verse 1
|------|----------------------------------------------|
|------|------------------------10h12p10--------------|
|-2h3-/|7----x7--5----x5--3----------------12-10-8----|
|------|-------------------------------------------10-| x2

Chorus
..motions..			..solitary motions..
|---------------------------------------------------------------------------------------------
|------------------------------------7-x7--x7-----------------------------7h9p7---------------
|-2/7----x3--5----x3---------------------------7----x3--5----x3--------------------10-8----7--
|---------------------5----3-5-x3-5------------------------------5----3-5---------------10----

Verse	2							I call it..
-----------------------------------------------------------------------
-----------------------------------------------------------------------
--x7--5----x5--3----x3-x3--3----5-3-5-7----x7--5----x5--3----x3-x3--3--
-----------------------------------------------------------------------

..solitary motions..
----------------------------------------------|
----------------------------------------------|
--/7----x7--5----x5---------------------------|
---------------------5----5-5--5----x0------x-|

only guitars and singer

No Name						
|-----------------------------------------------13--*14--*16--*14---13--------14h16-14-----------------------
|----------------------------------------------*13---14---16---14--*13-----------------14--10----------------
|------2-------2----2---------------------------------------------------12---------------------12-10---------
|-1-3-------x3---x3------3-5----3-5--x5----5x---------------------------------------------------------13--12-


--13--*14--*16--*14---13--*14----14h16-14-----------------------|
-*13---14---16---14--*13---14-------------14--10-9--------------|
---------------------------------------------------12--10-8----7|
------------------------------------------------------------10--|

Verse 1 x2
Chorus

Verse 3
|------------------------------------------------------------------------
|------------------------------------------------------------------------
|--x7--5----x5--3----x3-x3--3----5-5--7----x7--5----x5--3----x3-x3--3----
|------------------------------------------------------------------------

--------------------------------|
--------------------------------|
-7----x7--5----------------7----|
-----------------5----5---------|
Suggest correction
Give kudos to tab author, rate the tab!
1 2 3 4 5
comments
print report bad tab
guest
You may want to rate the tab now too:
select rating
Wanna post a correction for this tab? Suggest correction