Oops, an error
Loading. Please wait.

Bars In Astoria Tab

version 1
version 1

Whole song

Interactive

6,491 views 6 this week
no commentswrite comment
1 2 3 4 5
2 more votes to show rating
add to favorites
launch autoscroll
font size
0
reset
how to read this tab
guitar tuner
Autoscroll
slow
fast
+/-
esc
set tempo
stop
Help us to improve Ultimate-Guitar.com Take our survey!
×
Author
Difficulty
Tuning
novice
A E A D F# B
Band:  Emmure
Song:  Bars In Astoria
Album: Felony

Tuning: Drop A [A,E,A,D,F#,B]


Intro/Verse x4
0:04 - 0:36

B |-------------------------------------------|
F#|-------------------15-------------------14-|
D |-------------------------------------------|
A |-------------------------------------------|
E |-------------------------------------------|
A |-0000-13p12-00-000----0000-13p12-00-000----|

B |----------------------------------------------------------|
F#|-------------------15-------------------15151515----------|
D |-------------------------------------------------13131313-|
A |----------------------------------------------------------|
E |----------------------------------------------------------|
A |-0000-13p12-00-000----0000-13p12-00-000-------------------|


Riff 2 x2
0:36 - 0:43

B |----------------------------------|
F#|----------------------------------|
D |----------------------------------|
A |-0-0-0-0----------0-0-0-0---------|
E |-0-0-0-0-4p1-0-4--0-0-0-0-4p3-0-6-|
A |-0-0-0-0-4p1-0----0-0-0-0-4p3-0---|
PM  . . . .     .    . . . .     .


Riff 3 x2
0:44 - 0:51

B |--------------------------|
F#|--------------------------|
D |--------------------------|
A |-00-0-00--------0-00-0-00-|
E |-00-0-00--------0-00-0-00-|
A |-11-1-11--------1-11-1-11-|
PM  .. . ..        . .. . ..


Riff 4 x4
0:51 - 0:59

B |---------------|
F#|---------------|
D |---------------|
A |---------------|
E |---------------|
A |-0000--00-0000-|


Riff 3 x2
1:00 - 1:07

B |--------------------------|
F#|--------------------------|
D |--------------------------|
A |-00-0-00--------0-00-0-00-|
E |-00-0-00--------0-00-0-00-|
A |-11-1-11--------1-11-1-11-|
PM  .. . ..        . .. . ..


Riff 5
1:08 - 1:23

GUITAR ONE x8

B |--------------------|
F#|--------------------|
D |--------------------|
A |--------------------|
E |-0000--00-000000000-|
A |-0000--00-000000000-|
PM  ....  .. .........

GUITAR TWO

    v GTR 1 Rpt 5       v GTR 1 Rpt 6     v Rpt 7    v Rpt 8
B |-------------------------------------------------------------|
F#|---------------------------------------1818181818------------|
D |-191919191919191919-181818181818181818------------1818181818-|
A |-------------------------------------------------------------|
E |-------------------------------------------------------------|
A |-------------------------------------------------------------|


Verse x2
1:24 - 1:40

B |-------------------------------------------|
F#|-------------------15-------------------14-|
D |-------------------------------------------|
A |-------------------------------------------|
E |-------------------------------------------|
A |-0000-13p12-00-000----0000-13p12-00-000----|

B |----------------------------------------------------------|
F#|-------------------15-------------------15151515----------|
D |-------------------------------------------------13131313-|
A |----------------------------------------------------------|
E |----------------------------------------------------------|
A |-0000-13p12-00-000----0000-13p12-00-000-------------------|



Riff 6 x2
1:43 - 1:56

B |---------------------------------------------|
F#|---------------------------------------------|
D |---------------------------------------------|
A |-1-0-0--------0-0-0-0-0-0-0------1-0-0-----7-|
E |-1-0-0--------0-0-0-0-0-0-0------1-0-0--4----|
A |-1-0-0--------0-0-0-0-0-0-0------1-0-0-------|
PM    . .        . . . . . . .        . .


Breakdown 1 x4
1:57 - 2:24


B |---------------------------------------------|
F#|---------------------------------------------|
D |---------------------------------------------|
A |-1-0-0~~~~~~~-0-0-0-0-0-0-0~~~~~-1-0-0~~---7-|
E |-1-0-0~~~~~~~-0-0-0-0-0-0-0~~~~~-1-0-0~~4----|
A |-1-0-0~~~~~~~-0-0-0-0-0-0-0~~~~~-1-0-0~~-----|
PM    .                               .


Riff 7 x2
2:24 - 2:39


GUITAR ONE

B |-------------------------------------------|
F#|-------------------------------------------|
D |-------------------------------------------|
A |-000-0-0-0--000-0-0-0-4444-4444--1111-1111-|
E |-000-0-0-0--000-0-0-0-4444-4444--1111-1111-|
A |-000-0-0-0--000-0-0-0-4444-4444--1111-1111-|
PM  ... . . .  ... . . . .... ....  .... ....

I don't know GUITAR TWO


Final Breakdown x4
2:39 - 3:10

B |--------------------------------|
F#|--------------------------------|
D |--------------------------------|
A |-0-0-0-0-0-0~~~~~~~-0-0-0-0-0-0-|
E |-0-0-0-0-0-0~~~~~~~-0-0-0-0-0-0-|
A |-1-1-1-1-1-0~~~~~~~-1-1-1-1-1-1-|


Finish on
3:10 - 3:27

B |--------------------|
F#|--------------------|
D |--------------------|
A |-0~~~~~~~~~~~~~~~~~-|
E |-0~~~~~~~~~~~~~~~~~-|
A |-0~~~~~~~~~~~~~~~~~-|
Suggest correction
Give kudos to tab author, rate the tab!
1 2 3 4 5
comments
print report bad tab
guest
You may want to rate the tab now too:
select rating
Wanna post a correction for this tab? Suggest correction