Oops, an error
Loading. Please wait.

Demons With Ryu Bass Tab

version 1
version 1

Whole song

Interactive

4,302 views 3 this week
no commentswrite comment
1 2 3 4 5
please rate
add to favorites
launch autoscroll
font size
0
reset
guitar tuner
Autoscroll
slow
fast
+/-
esc
set tempo
stop
Help us to improve Ultimate-Guitar.com Take our survey!
×
Author
Difficulty
Tuning
novice
A E A D F# B
#----------------------------------PLEASE NOTE---------------------------------#
#This file is the author's own work and represents their interpretation of the #
#song. You may only use this file for private study, scholarship, or research. #
#------------------------------------------------------------------------------#

DEMONS WITH RYU (Bassline)
As recorded by Emmure
(From the 2011 Album SPEAKER OF THE DEAD)

Transcribed by Jonathan Rose 2011
	

Words and Music by Emmure

Gtr I (A E A D) - 'Bass (Picked)'

 Intro
  Moshcore E=184
 4/4
  Gtr I
  Wx2
|--------|
|--------|
|--------|
|--------|


  E T T T T E T T T T S S S S Q    E T T T T E T T T T S S S S Q
|--------------------------------|--------------------------------|
|--------------------------------|--------------------------------|
|--------------------------------|--------------------------------|
|-1-1-1-1-1-1-1-1-1-1-1-1-1------|-1-1-1-1-1-1-1-1-1-1-1-1-1------|


  E T T T T E T T T T S S S S Q
|--------------------------------|
|--------------------------------|
|--------------------------------|
|-1-1-1-1-1-1-1-1-1-1-1-1-1------|


  E T T T T E T T T T S S S S S S S S   S Q..   S E.  Q  a
|-------------------------------------|---------------------|
|-------------------------------------|---------------------|
|-------------------------------------|---------------------|
|-1-1-1-1-1-1-1-1-1-1-1-1-0-1-0-3-0-0-|-1-------1----/7s=0--|


   "I am no one."
    S S S S S S S S S S S S S S S S   S S S S S S S S S S S S S S S S
||----------------------------------|----------------------------------||
||o---------------------------------|---------------------------------o||
||o-------------------------5-5-5-5-|-------------------------5-5-5-5-o||
||--1-0-0-0-0-0-0-1-0-3-0-0---------|-1-0-0-0-0-0-0-1-0-3-0-0----------||


 Intro Variation
  E T T T T E T T T T S S S S Q    E T T T T E T T T T S S S S Q
|--------------------------------|--------------------------------|
|--------------------------------|--------------------------------|
|--------------------------------|--------------------------------|
|-1-0-0-0-0-1-0-0-0-0-1-1-1------|-1-0-0-0-0-1-0-0-0-0-1-1-1------|


  E T T T T E T T T T S S S S Q    E T T T T E T T T T H
|--------------------------------|--------------------------|
|--------------------------------|--------------------------|
|--------------------------------|--------------------------|
|-1-0-0-0-0-1-0-0-0-0-1-1-1------|-1-0-0-0-0-1-0-0-0-0------|


   "I am no one."
    S S S S S S S S S S S S S S S S   S S S S S S S S S S S S S S S S
||----------------------------------|----------------------------------||
||o---------------------------------|---------------------------------o||
||o-------------------------5-5-5-5-|-------------------------5-5-5-5-o||
||--1-0-0-0-0-0-0-1-0-3-0-0---------|-1-0-0-0-0-0-0-1-0-3-0-0----------||


 "This devil in me lives."
  Q=129
  S S E S S E H       S  S  E  S  S  E H
|------------------|------------------------|
|------------------|------------------------|
|------------------|------------------------|
|-0-0-0-0-0-0------|-12-12-12-12-12-12------|


    S S E S S E  E  E  E  E   S S E S S E  E  E  E  E
||--------------------------|--------------------------||
||o-------------------------|-------------------------o||
||o-------------------------|-------------------------o||
||--0-0-0-0-0-0-12-12-12-12-|-0-0-0-0-0-0-12-12-12-12--||


  S S E S S E E E E E   S S E S S E E E E E
|---------------------|---------------------|
|---------------------|---------------------|
|-------------8-8-8-8-|-------------8-8-8-8-|
|-8-8-8-8-8-8---------|-8-8-8-8-8-8---------|


    S S E S S E E E E E   S S E S S E E E E E
||----------------------|----------------------||
||o---------------------|---------------------o||
||o-------------5-5-5-5-|-------------5-5-5-5-o||
||--0-0-0-0-0-0---------|-0-0-0-0-0-0----------||


  S S E S S E E E E E   S S E S S E S S S S S S S S
|---------------------|-----------------------------|
|---------------------|-----------------------------|
|-------------8-8-8-8-|-------------8-8---8-8-8-8-8-|
|-8-8-8-8-8-8---------|-8-8-8-8-8-8-----------------|


  Wx4
|--------||
|--------||
|--------||
|--------||


   Breakdown
    S S S E H    S E   E H    E S S E
||-------------------|-----------------||
||o------------------|----------------o||
||o------------------|----------------o||
||--0-0-0-0--------0-|-0------0-0-0-0--||


  S S S E +H     +S  E   E H    E S S E   Wx2
|----------------------|----------------|--------|
|----------------------|----------------|--------|
|----------------------|----------------|--------|
|-0-0-0-0-(0)----(0)-0-|-0------0-0-0-0-|--------|


    S S S E H    S E   E H    E S S E
||-------------------|-----------------||
||o------------------|----------------o||
||o------------------|----------------o||
||--0-0-0-0--------0-|-0------0-0-0-0--||


  S S S E +H     +S  E   E H    E S S E   Wx2
|----------------------|----------------|--------||
|----------------------|----------------|--------||
|----------------------|----------------|--------||
|-0-0-0-0-(0)----(0)-0-|-0------0-0-0-0-|--------||


   Bridge
     E  E  E  E  E  E  E  E    E  E  E  E  E E E E  4x W
||--------------------------|-----------------------||------||
||o-------------------------|----------------------o||------||
||o-------------------------|----------------------o||------||
||--12-12-12-12-12-12-12-12-|-12-12-12-12-12-0-0-0--||------||


   "This never ending.."
    S S E S S E  E  E  E  E   S S E S S E  E  E  E  E
||--------------------------|--------------------------||
||o-------------------------|-------------------------o||
||o-------------------------|-------------------------o||
||--0-0-0-0-0-0-12-12-12-12-|-0-0-0-0-0-0-12-12-12-12--||


  S S E S S E E E E E   S S E S S E E E E E
|---------------------|---------------------|
|---------------------|---------------------|
|-------------8-8-8-8-|-------------8-8-8-8-|
|-8-8-8-8-8-8---------|-8-8-8-8-8-8---------|


    S S E S S E  E  E  E  E   S S E S S E  E  E  E  E
||--------------------------|--------------------------||
||o-------------------------|-------------------------o||
||o-------------------------|-------------------------o||
||--0-0-0-0-0-0-12-12-12-12-|-0-0-0-0-0-0-12-12-12-12--||


  S S E S S E E E E E   S S E S S E S S S S S S S S
|---------------------|-----------------------------||
|---------------------|-----------------------------||
|-------------8-8-8-8-|-------------8-8---8-8-8-8-8-||
|-8-8-8-8-8-8---------|-8-8-8-8-8-8-----------------||


 Build Up
  S S E S S E E. E. E   +W           S S E S S E E. E. E   +H     +E  S S  Q
|---------------------|------------|---------------------|---------------------|
|---------------------|------------|---------------------|---------------------|
|---------------------|------------|---------------------|---------------------|
|-0-0-0-0-0-0-0--0--0-|-(0)--------|-0-0-0-0-0-0-0--0--0-|-(0)----(0)-0-0-12\--|


                                                          2/4
  S S E S S E E. E. E   +W           S S E S S E E. E. E   +E  E E E
|---------------------|------------|---------------------|-----------||
|---------------------|------------|---------------------|-----------||
|---------------------|------------|---------------------|-----------||
|-0-0-0-0-0-0-0--0--0-|-(0)--------|-0-0-0-0-0-0-0--0--0-|-(0)-0-0-0-||


 [Street Fighter 2 Sample]
             H=H
 4/4        2/4
  >             <
  W          a +H     a
|----------|------------||
|----------|------------||
|----------|------------||
|-7s=======|=0-(0)s===7-||


 Outro Breakdown
  Original Tempo E=184
 4/4
  E T T T T E T T T T S S E S S E   T T T T E E T T T T S S E S S S S
|---------------------------------|------------------------------------|
|---------------------------------|------------------------------------|
|---------------------------------|-----------------------------5---5--|
|-1-1-1-1-1-1-1-1-1-1-1-1-1-1-1-1-|-1-1-1-1-1-1-1-1-1-1-1-1-1-0---0----|


  E T T T T E T T T T S S E S S S S   E T T T T E T T T T S S S S Q
|-----------------------------------|--------------------------------*|
|-----------------------------------|--------------------------------*|
|-----------------------------------|--------------------------------*|
|-1-1-1-1-1-1-1-1-1-1-1-1-1-1-1-1-1-|-1-1-1-1-1-1-1-1-1-1-1-1-1------*|



Duration Legend
---------------
W - whole; H - half; Q - quarter; E - 8th; S - 16th; T - 32nd; X - 64th; a - acciaccatura
+ - note tied to previous; . - note dotted; .. - note double dotted
Uncapitalized letters represent notes that are staccato (1/2 duration)
Irregular groupings are notated above the duration line
Duration letters will always appear directly above the note/fret number it represents the
duration for.  Duration letters with no fret number below them represent rests.  Multi-
bar rests are notated in the form Wxn, where n is the number of bars to rest for.  Low
melody durations appear below the staff

Tablature Legend
----------------
 h   - hammer-on
 p   - pull-off
 b   - bend
 pb  - pre-bend
 r   - bend release (if no number after the r, then release immediately)
 /\  - slide into or out of (from/to "nowhere")
 s   - legato slide
 S   - shift slide
 - natural harmonic
[n]  - artificial harmonic
n(n) - tapped harmonic
 ~   - vibrato
 tr  - trill
 T   - tap
 TP  - trem. picking
 PM  - palm muting
\n/  - tremolo bar dip; n = amount to dip
 \n  - tremolo bar down
 n/  - tremolo bar up
/n\  - tremolo bar inverted dip
 =   - hold bend; also acts as connecting device for hammers/pulls
 <> - volume swell (louder/softer)
 x   - on rhythm slash represents muted slash
 o   - on rhythm slash represents single note slash

Misc Legend
-----------
 |  - bar
||  - double bar
||o - repeat start
o|| - repeat end
*|  - double bar (ending)
 :  - bar (freetime)
 $  - Segno
 &  - Coda
Tempo markers -  = BPM(8/16=s8/s16), where s8 = swing 8ths, s16 = swing 16ths


** Generated using Power Tab Editor by Brad Larsen: The Official Power Tab Web Site
Suggest correction
Give kudos to tab author, rate the tab!
1 2 3 4 5
comments
print report bad tab
guest
You may want to rate the tab now too:
select rating
Wanna post a correction for this tab? Suggest correction