Oops, an error
Loading. Please wait.

I Only Mean Half Of What I Dont Say Bass Tab

version 1
version 1

Whole song

Interactive

3,142 views 3 this week
no commentswrite comment
1 2 3 4 5
please rate
add to favorites
launch autoscroll
font size
0
reset
guitar tuner
Tab Pro tools
  • play this tab
  • loop segment
  • change instrument
  • show fretboard
  • metronome
×
Best way to learn
"I Only Mean Half Of What I Dont Say"
Autoscroll
slow
fast
+/-
esc
set tempo
stop
Contributor
Difficulty
#----------------------------------PLEASE NOTE---------------------------------#
#This file is the author's own work and represents their interpretation of the #
#song. You may only use this file for private study, scholarship, or research. #
#------------------------------------------------------------------------------#

I ONLY MEAN HALF OF WHAT I DON'T SAY (Bassline)
As recorded by Emmure
(From the 2008 Album THE RESPECT ISSUE)

Transcribed by Jonathan Rose
	

Words and Music by Emmure

Gtr I (Bb F Bb Eb) - 'Bass'

 Intro
  Dancefight Q=126
 4/4
  Gtr I
  W          a E. E. E E E E E
|----------|-------------------||
|----------|-------------------||
|----------|-------------------||
|-0--------|-5s8--7--3-3-2-1-2-||


 "I'll try my best to explain.."
  S S S S S S S S S S S S S S S S   S S S S S S S S S S S S S S S S
|---------------------------------|---------------------------------|
|---------------------------------|---------------------------------|
|---------------------------------|---------------------------------|
|-0-0---0-0---0-0---0-0---0-0---0-|-0---0-0---0-0---0-0-0-0-0-0-0-0-|


  S S S S S S S S S S S S S S S S   a E. E. E a E E E E
|---------------------------------|---------------------|
|---------------------------------|---------------------|
|---------------------------------|---------------------|
|-0-0---0-0---0-0---0-0---0-0-0-0-|-5s8--7--3-1s4-3-1-3-|


  S E S E S E S E S E S   E S E S E S S S S S S S S
|-----------------------|---------------------------|
|-----------------------|---------------------------|
|-----------------------|---------------------------|
|-0-0-0-0-0-0-0-0-0-0-0-|-0-0-0-0-0-0-0-0-0-0-0-0-0-|


                                             2/4
  S E S E S E S E S E S   a E. E. E E E E E   E Q.
|-----------------------|-------------------|--------||
|-----------------------|-------------------|--------||
|-----------------------|-------------------|--------||
|-0-0-0-0-0-0-0-0-0-0-0-|-5s8--7--3-3-2-1-2-|-1------||


   "I will show no sympathy.."
   3/4
    E H    S S   +S  S E E Q.     E Q.   S E S
||-------------|----------------|--------------|
||o------------|----------------|--------------|
||o------------|----------------|--------------|
||--1------1-1-|-(1)-1-1-1------|-1------1-1-1-|


                    4/4
                                   |-3-|
  +S  Q  S S E S E   E S E S E E E E E E
|------------------|----------------------||
|------------------|---------------------o||
|------------------|---------------------o||
|-(1)------1-1-1-1-|-1-1-1-1-1-1-1-1-1-1--||


  H    E S S E E   H    E S S E E   H    H      S E H.      +S
|----------------|----------------|-----------|-----------------|
|----------------|----------------|-----------|-----------------|
|----------------|----------------|-----------|-----------------|
|-0----0-0-0-0-0-|-0----0-0-0-0-0-|-0----0----|-0-0-0-------(0)-|


  W          +W
|----------|--------||
|----------|--------||
|----------|--------||
|-0--------|-(0)----||


 "Your sad fate.."
 3/4
  E H    S S   +S  S E E Q.     E Q.   S E S
|------------|----------------|--------------|
|------------|----------------|--------------|
|------------|----------------|--------------|
|-0------0-0-|-(0)-0-0-0------|-0------0-0-0-|


                    4/4
  +S  Q  S S E S E   E S E S E E E S E S
|------------------|---------------------|
|------------------|---------------------|
|------------------|---------------------|
|-(0)------0-0-0-0-|-0-0-0-0-0-0-0-0-0-0-|


                                H=H  Faster Q=131
 3/4                           4/4
  E H    S S   +S  S E E Q.     E Q.   E Q  E   Q  E E E E E E
|------------|----------------|---------------|-----------------|
|------------|----------------|---------------|-----------------|
|------------|----------------|---------------|-----------------|
|-0------0-0-|-(0)-0-0-0------|-0------0----0-|----0-0-0---0----|


                                                     2/4
  E E E E Q.   E   Q  E E E E E E   E S S Q  E Q.     H
|----------------|----------------|-----------------|------||
|----------------|----------------|-----------------|------||
|----------------|----------------|-----------------|------||
|-0-0---0------0-|----0-0-0---0---|-0-0-0----0------|------||


   Breakdown
   4/4
                      |-3-| |-3-| |-3-| |-3-|   |-3-| |-3-|
    E E E E E E E E   E E E E E E E E E E E E   Q Q Q Q Q Q
||------------------|-------------------------|--------------||
||o-----------------|-------------------------|-------------o||
||o-----------------|-------------------------|-------------o||
||--1-1-1-1-1-1-1-1-|-2-2-2-2-2-2-2-2-2-2-2-2-|-0-0-0-0-0-0--||


  E E E E E E E E   W
|-----------------|------||
|-----------------|------||
|-----------------|------||
|-1-1-1-1-1-1-1-1-|------||


   Beatdown
    E. E. S E. E. E.   S E. E. S E. S S S S S  4x
||-------------------|-------------------------||
||o------------------|------------------------o||
||o------------------|------------------------o||
||--1--1--1-1--1--1--|-1-1--1--1-1--1-1-1-1-1--||


 "And I don't really gotta.."
  Original Tempo Q=126
  S S S S S S S S S S S S S S S S   S S S S S S S S S S S S S S S S
|---------------------------------|---------------------------------|
|---------------------------------|---------------------------------|
|---------------------------------|---------------------------------|
|-0-0---0-0---0-0---0-0---0-0---0-|-0---0-0---0-0---0-0-0-0-0-0-0-0-|


  S S S S S S S S S S S S S S S S   a E. E. E a E E E E
|---------------------------------|---------------------|
|---------------------------------|---------------------|
|---------------------------------|---------------------|
|-0-0---0-0---0-0---0-0---0-0-0-0-|-5s8--7--3-1s4-3-1-3-|


  S E S E S E S E S E S   E S E S E S S S S S S S S
|-----------------------|---------------------------|
|-----------------------|---------------------------|
|-----------------------|---------------------------|
|-0-0-0-0-0-0-0-0-0-0-0-|-0-0-0-0-0-0-0-0-0-0-0-0-0-|


  S E S E S E S E S E S   E. E. E E E E E
|-----------------------|-----------------|
|-----------------------|-----------------|
|-----------------------|-----------------|
|-0-0-0-0-0-0-0-0-0-0-0-|-1--1--0-1-1-1-1-|


  S S Q  E Q  E E   E S S Q  S E. Q    E Q  S S Q  E E   E E Q  S E. Q
|-----------------|------------------|-----------------|----------------||
|-----------------|------------------|-----------------|----------------||
|-----------------|------------------|-----------------|----------------||
|-0-0----0----0---|---0-0----0-0--0--|-0----0-0----0---|---0----0-0--0--||


   "Scratching" Outro
   3/4                       2/4
    E Q  S S Q    E Q  E Q    S E. Q   4x
||--------------|-----------|----------||
||o-------------|-----------|---------o||
||o-------------|-----------|---------o||
||--0----0-0----|-0----0----|-0-0--0---||


   3/4                     2/4
    Q.   Q.     Q.   Q.     S E. Q
||------------|-----------|----------||
||o-----------|-----------|---------o||
||o-----------|-----------|---------o||
||--0----0----|-0----0----|-0-0--0---||


 3/4                       2/4
  E Q  E Q    S S Q  E Q    S E. Q
|-----------|-------------|---------|
|-----------|-------------|---------|
|-----------|-------------|---------|
|-1----1----|-1-1----1----|-1-1--1--|


 3/4                       2/4
  E Q  E Q    E Q  S S Q    S E. Q
|-----------|-------------|---------|
|-----------|-------------|---------|
|-----------|-------------|---------|
|-1----1----|-1----1-1----|-1-1--1--|


 3/4                     4/4
  E Q  E Q    E Q  E Q    S E. Q  E. Q  S
|-----------|-----------|-----------------*|
|-----------|-----------|-----------------*|
|-----------|-----------|-----------------*|
|-0----0----|-0----0----|-0-0--0--0-------*|



Duration Legend
---------------
W - whole; H - half; Q - quarter; E - 8th; S - 16th; T - 32nd; X - 64th; a - acciaccatura
+ - note tied to previous; . - note dotted; .. - note double dotted
Uncapitalized letters represent notes that are staccato (1/2 duration)
Irregular groupings are notated above the duration line
Duration letters will always appear directly above the note/fret number it represents the
duration for.  Duration letters with no fret number below them represent rests.  Multi-
bar rests are notated in the form Wxn, where n is the number of bars to rest for.  Low
melody durations appear below the staff

Tablature Legend
----------------
 h   - hammer-on
 p   - pull-off
 b   - bend
 pb  - pre-bend
 r   - bend release (if no number after the r, then release immediately)
 /\  - slide into or out of (from/to "nowhere")
 s   - legato slide
 S   - shift slide
 - natural harmonic
[n]  - artificial harmonic
n(n) - tapped harmonic
 ~   - vibrato
 tr  - trill
 T   - tap
 TP  - trem. picking
 PM  - palm muting
\n/  - tremolo bar dip; n = amount to dip
 \n  - tremolo bar down
 n/  - tremolo bar up
/n\  - tremolo bar inverted dip
 =   - hold bend; also acts as connecting device for hammers/pulls
 <> - volume swell (louder/softer)
 x   - on rhythm slash represents muted slash
 o   - on rhythm slash represents single note slash

Misc Legend
-----------
 |  - bar
||  - double bar
||o - repeat start
o|| - repeat end
*|  - double bar (ending)
 :  - bar (freetime)
 $  - Segno
 &  - Coda
Tempo markers -  = BPM(8/16=s8/s16), where s8 = swing 8ths, s16 = swing 16ths


** Generated using Power Tab Editor by Brad Larsen: The Official Power Tab Web Site
comments
We did not receive enough feedback on this tab! Please rate:
print report bad tab
1 2 3 4 5
I want to post or [tab]
guest
You may want to rate the tab now too:
select rating
Please do not post tabs as comments. Select "correction" instead!