Oops, an error
Loading. Please wait.

I Thought You Met Telly And Turned Me Into Casper Tab

13,187 views 3 this week
1 commentread comment
1 2 3 4 5
x 7
add to favorites
launch autoscroll
font size
0
reset
how to read this tab
guitar tuner
Autoscroll
slow
fast
+/-
esc
set tempo
stop
Help us to improve Ultimate-Guitar.com Take our survey!
×
Difficulty
Tuning
novice
A E A D F# B
Artist: Emmure
Album: Felony
Song: I Thought You Met Telly and Turned Me Into Casper
Tabbed by: Shawn Shindle

*NOTE* I learned this by ear and it sounds pretty accurate.
Since no one has tabbed this, I decided to tab a somewhat correct one.
Also, you are going to need an octave pedal to go one octave higher for
that scream thing. And the amazing pick scrapes that the guitarists
do are by scraping downward an inch from the bridge/tailpiece.
Hopefully this is helpful to you. For timing, play along to the
song and figure it out. -Shawn

Tuning Drop A (A,E,A,D,G,B,E) or for six string (A,E,A,D,G,B)

Palm mutes - .
Plus one Octave - ^
Pinch harmonic - *
Downward pick scrape - \ and z
Bend up - bu
Bend down - bd

Verse #1 (0:00)
|----0-------0-------0------------|----0-------0-------0------------|
|----3-------3-------3------------|----3-------3-------3------------|
|---------------------------------|---------------------------------| x2
|---------------------------------|---------------------------------|
|-0-----0-0-----0-0-----0-0-0-0-0-|-------0-------0-------0-0-0-0-0-|
|-1-----1-1-----1-1-----1-1-1-1-1-|-1-----1-1-----1-1-----1-1-1-1-1-|
  .  ^  . .  ^  . .  ^  . . . . .      ^  .    ^  .    ^  . . . . .

|-0--0--0--0--0--0--0--0--|
|-3--3--3--3--3--3--3--3--|
|-------------------------| (this is most definitely done with delay and
|-------------------------|  faded out. probably edited in studio.)
|-------------------------|
|-------------------------|

Interlude #1 (0:18)
|----------------------------------------------|
|----------------------------------------------|
|----------------------------------------------|
|----------------------------------------------|
|-0--0---0-0-0--0---0-0-0--0---0-0-0--0--------|
|-1--1---1-1-1--1---1-1-1--1---1-1-1--1--\\\\--|
  .  .   . . .  .   . . .  .   . . .  .  zzzz  
                                                      x2
|----------------------------------------------|
|----------------------------------------------|
|----------------------------------------------|
|----------------------------------0--0--0--0--|
|-0--0---0-0-0--0---0-0-0--0---0-0-0--0--0--0--|
|-1--1---1-1-1--1---1-1-1--1---1-1-0--0--0--0--|
  .  .   . . .  .   . . .  .   . . .  .  .  .  

Verse #2 (0:32)
|----------------------------------------------|
|----------------------------------------------|
|----------------------------------------------|
|-------------------1-1--1--1-1--1--1--1-1-1-1-|
|-------------------0-0--0--0-0--0--0--0-0-0-0-|
|-4-(7)----4-(7)----1-1--1--1-1--1--1--1-1-1-1-|
   bu       bu      . .  .  . .  .  .  . . . . 
                                                      x2
|----------------------------------------------|
|----------------------------------------------|
|----------------------------------------------|
|-------------------1-1--1--1-1--1--1--1-1-1-1-|
|-------------------0-0--0--0-0--0--0--0-0-0-0-|
|-(7)-4----1-(4)----1-1--1--1-1--1--1--1-1-1-1-|
    bd      bu      . .  .  . .  .  .  . . . . 

Verse #3 (0:45)
|--------------------------|---------------------------|
|--------------------------|---------------------------|
|--------------------------|---------------------------|
|-0-0--0--0--0-0--0--0-0-0-|-0-0--0--0--0-0--0-0-0-0-0-| x2
|-0-0--0--0--0-0--0--0-0-0-|-0-0--0--0--0-0--0-0-0-0-0-|
|-0-0--0--0--0-0--0--0-0-0-|-0-0--0--0--0-0--0-0-0-0-0-|
  . .  .  .  . .  .  . . .   . .  .  .  . .  . . . . . 

|----|
|----|
|-*8-| (this is the pinch harmonic you here in verse three)
|----|
|----|
|----|

Verse #4 (0:59)
|-10-----10---------------------------------|
|-8------8----------------------------------|
|-7------7----------------------------------|
|-6------6----------------------------------| x2
|---------------0-0--0--0--0-0--0---0-0-0-0-|
|---------------1-1--1--1--1-1--1---1-1-1-1-|
                . .  .  .  . .  .   . . . . 

|-10-----101010~~~~~~~~~~~~|
|-8------8-8-8~~~~~~~~~~~~~|
|-7------7-7-7~~~~~~~~~~~~~|
|-6------6-6-6~~~~~~~~~~~~~| x2 
|--------------------------|
|--------------------------|


|-10-----1010101010111111111110101010-|
|-8------8-8-8-8-8-8-8-8-8-8-8-8-8-8--|
|-7------7-7-7-7-7-7-7-7-7-7-7-7-7-7--|
|-6------6-6-6-6-6-6-6-6-6-6-6-6-6-6--|
|-------------------------------------|
|-------------------------------------|


|-10-----1010101010111111111114141414-|
|-8------8-8-8-8-8-8-8-8-8-8-12121212-|
|-7------7-7-7-7-7-7-7-7-7-7-11111111-|
|-6------6-6-6-6-6-6-6-6-6-6-10101010-|
|-------------------------------------|
|-------------------------------------|

Verse #5 (1:27)
|--------------------------------------------------|
|--------------------------------------------------|
|--------------------------------------------------|
|-7---0---0------------------------0---------------| x4
|-7---0---0------------0-0-0-0-0-0-0---0--0---0--0-|
|-7---0---0--1--(0)----0-0-0-0-0-0-0---0--0---0--0-|
      .   .            . . . . . .     .  .   .  . 

Interlude #2 (1:40)
|---------------------------------|
|---------------------------------|
|---------------------------------|
|-1--1----1--1----1--1------------| x2
|-0--0----0--0----0--0----2-1-0-1-|
|-1--1----1--1----1--1----3-2-1-2-|
  .  .    .  .    .  .    . . . . 

Verse #6 (1:49)
|--------0---------0-------------------------|
|--------3---------3-------------------------|
|--------------------------------------------|
|--------------------------------------------| x4
|-0--0------0--0------0--0--0--0--0---0---0--|
|-1--1------1--1------1--1--1--1--1---1---1--|
  .  .      .  .      .  .  .  .  .   .   .  

Interlude #3 (2:04)
|----------------------------------|----------------------------|
|----------------------------------|----------------------------|
|----------------------------------|----------------------------|
|-----------------0~~~~~~~~~~~~~~~~|~~(0)(0)(0)--(0)--(0)--(0)--|
|-4-----0-4-0-3-0-0~~~~~~~~~~~~~~~~|~~(0)(0)(0)--(0)--(0)--(0)--|
|----3--0-4-0-3-0-0~~~~~~~~~~~~~~~~|~~(0)(0)(0)--(0)--(0)--(0)--|
        .   .   . 

Verse #7 (2:09)
|----0-------0-------0------------|----0-------0-------0------------|
|----3-------3-------3------------|----3-------3-------3------------|
|---------------------------------|---------------------------------| x2
|---------------------------------|---------------------------------|
|-0-----0-0-----0-0-----0-0-0-0-0-|-------0-------0-------0-0-0-0-0-|
|-1-----1-1-----1-1-----1-1-1-1-1-|-1-----1-1-----1-1-----1-1-1-1-1-|
  .  ^  . .  ^  . .  ^  . . . . .      ^  .    ^  .    ^  . . . . .

Interlude #4 (2:23)

Verse #8 (2:30)
|----------------------------------------------|
|----------------------------------------------|
|----------------------------------------------|
|-1--1---1-1-1--1---1-1-1--1---1-1-1--1--------|
|-0--0---0-0-0--0---0-0-0--0---0-0-0--0--------|
|-1--1---1-1-1--1---1-1-1--1---1-1-1--1--\\\\--|
  .  .   . . .  .   . . .  .   . . .  .  zzzz  
                                                      x2
|----------------------------------------------|
|----------------------------------------------|
|----------------------------------------------|
|-1--1---1-1-1--1---1-1-1--1---1-1-0--0--0--0--|
|-0--0---0-0-0--0---0-0-0--0---0-0-0--0--0--0--|
|-1--1---1-1-1--1---1-1-1--1---1-1-0--0--0--0--|
  .  .   . . .  .   . . .  .   . . .  .  .  .  

Fade out with...
|-0--0--0--0--0--0--0--0--\
|-3--3--3--3--3--3--3--3--\
|-------------------------\
|-------------------------\
|-------------------------\
|-------------------------\


Lyrics:
I'm probably the worst fuck you ever had.
I apologize the best I can.
How could you not understand
That you shut me out when you let him in?

(I Want You Cumming Inside me)

Oh god
Oh my god this can't be happening

Why me?
Oh why me?

Tell me,
Was he worth it?

I just want you to know
That you're the reason I got tested.
And because of you I'm at the clinic hoping, praying.

Please God
Let me be negative.
7 years bad luck.
A never ending gift
From the filth you fucked.

(I Want You Cumming Inside Me)

Why? Why me?
Suggest correction
comments
print report bad tab
1 comment total.
0 reply
GraceTheWrong 110 Aug 29, 2013 08:37 AM

Do the z's mean you do the scrape more than once?

guest
You may want to rate the tab now too:
select rating
Wanna post a correction for this tab? Suggest correction