Oops, an error
Loading. Please wait.

Last Words To Rose Tab

3,201 views 12 this week
3 commentsread comments
1 2 3 4 5
accurate
x 3
add to favorites
launch autoscroll
font size
0
reset
how to read this tab
guitar tuner
Tab Pro tools
  • play this tab
  • loop segment
  • change instrument
  • show fretboard
  • metronome
×
Best way to learn
"Last Words To Rose"
Autoscroll
slow
fast
+/-
esc
set tempo
stop
Contributor
Difficulty
Tuning
novice
A E A D F# B
|---------------------------------------------------------------------------|
|--------10~------10~----10~--10~-------------------------------------------|
|------7~-------7~---7~-----7~---7~-----------------------------------------|
|----9~-------9~-------9~----------9~---------------------------------------|
|---------------------------------------------------------------------------|
|--0~-------0~--------------------------------------------------------------| 


|---------------------------------------------------------------------------|
|---------------------------------------------------------------------------|
|---------------------------------------------------------------------------|
|--0000000000000000---------------------------------------------------------|
|--3333333333333333---------------------------------------------------------|
|--0000000000000000---------------------------------------------------------| 


|---------------------------------------------------------------------------|
|---------------------------------------------------------------------------|
|--7-7b-7b-7b-7b-7b-7-------------------------------------------------------|
|---------------------------------------------------------------------------|
|---------------------------------------------------------------------------|
|---------------------------------------------------------------------------| 


|---------------------------------------10p9--------------------------------|
|--9~--8~----------9-----9-----9-----9p8----10~-----------------------------|
|----------8~--------7-8---7-8---7-8----------------------------------------|
|-------------9-------------------------------------------------------------|
|---------------8-9---------------------------------------------------------|
|---------------------------------------------------------------------------|

|---------------------------------------------------------------------------|
|---------------------------------------------------------------------------|
|---------------------------------------------------------------------------|
|------77-----7777-----77-----7777------------------------------------------|
|--555-55-555-5555-555-55-555-5555------------------------------------------|
|--555-55-555-5555-555-55-555-5555------------------------------------------|


|---------------------------------------------------------------------------|
|---------------------------------------------------------------------------|
|---------------------------------------------------------------------------|
|---------------------------------------------------------------------------|
|--3-33-33-3-333-555-3-33-33-3-333------------------------------------------|
|--3-33-33-3-333-333-3-33-33-3-333------------------------------------------|


|---------------------------------------------------------------------------|
|---------------------------------------------------------------------------|
|---------------------------------------------------------------------------| 
|---------------------------------------------------------------------------|
|----5-555------------------------------------------------------------------|
|----5-555------------------------------------------------------------------| 


|---------------------------------------------------------------------------|
|---------------------------------------------------------------------------|
|---------------------------------------------------------------------------|
|---------------------------------------------------------------------------|
|--3-33-33-3-333-555-3-33-33-3-333------------------------------------------|
|--3-33-33-3-333-333-3-33-33-3-333------------------------------------------|


|---------------------------------------------------------------------------|
|--------9~-10-9---------9~-10-9--------------------------------------------|
|----9~----------9---9~----------9------------------------------------------|
|--9~--9~----------9~--9~---------------------------------------------------|
|---------------------------------------------------------------------------|
|---------------------------------------------------------------------------|


|---------------------------------------------------------------------------|
|---------------------------------------------------------------------------|
|---------------------------------------------------------------------------|
|---------------------------------------------------------------------------|
|--5-55---5-55---5-55---5-55------------------------------------------------|
|--5-55---5-55---5-55---5-55------------------------------------------------|


|---------------------------------------------------------------------------|
|---------------------------------------------------------------------------|
|---------------------------------------------------------------------------|
|---------------------------------------------------------------------------|
|--0-00-----------------------------1-11------------------------------------|
|--0-00-1-0-1-1-0-1-1-0-1-1-0-1-1-0-1-11------------------------------------|


|---------------------------------------------------------------------------|
|---------------------------------------------------------------------------|
|---------------------------------------------------------------------------|
|---------------------------------------------------------------------------|
|--11-11-0~-----------------------------------------------------------------|
|--11-11-0~-----------------------------------------------------------------|
comments
We did not receive enough feedback on this tab! Please rate:
print report bad tab
1 2 3 4 5
3 comments total.
0 reply
powerhitter33 wrote on July 12 2013, 09:06 pm

|--------------------------------9--10-11-10------------------------------|
|--9~--8~----------9-----9-----9--9---------------------------------------|
|----------8~--------7-8---7-8--------------------------------------------|
|-------------9-----------------------------------------------------------|
|---------------8-9-------------------------------------------------------|
|-------------------------------------------------------------------------|

0 reply
powerhitter33 wrote on July 12 2013, 09:21 pm


|--------------------------------9--9-10-9--------------------------------|
|--9~--8~-----9----9-----9-----9--9---------------------------------------|
|----------8~--------7-8---7-8--------------------------------------------|
|-------------------------------------------------------------------------|
|---------------8-9-------------------------------------------------------|
|-------------------------------------------------------------------------|

Not perfect, but better.

0 reply
Diwat wrote on February 1 2015, 07:16 am

Lack of accuracy. The Tuning is wrong, the song is played at least a half step lower. Also the Solo tab is wrong (even if you tune the guitar down)

I want to post or [tab]
guest
You may want to rate the tab now too:
select rating
Please do not post tabs as comments. Select "correction" instead!