Oops, an error
Loading. Please wait.

Lessons From Nichole Tab

701 views 3 this week
no commentswrite comment
1 2 3 4 5
excellent!
x 2
add to favorites
launch autoscroll
font size
0
reset
how to read this tab
guitar tuner
Tab Pro tools
  • play this tab
  • loop segment
  • change instrument
  • show fretboard
  • metronome
Autoscroll
slow
fast
+/-
esc
set tempo
stop
Contributor
Difficulty
Tuning
intermediate
A E A D F# B
-------------------------------------------------------------------------------
                             Lessons from Nichole/Emmure
-------------------------------------------------------------------------------
Tabbed by:Henry18
Email:2008hjeb@gmail.com

Tuning:drop A
I noticed that there's no tab for this so i gave it a go, tell me what you think. Its my 
first tab and its allot more difficult than I thought
Intro
guitar 1 and guitar 2 play the same intro
e|---------------------------------------------------------------------------|
B|---------------------------------------------------------------------------|
G|---------------------------------------------------------------------------|
D|------------10--------------------------------10-------10------------------|
A|-8-7-5--------8-7--------------------------------8-7-------8-7-------------|
E|0------0-0000----0-0000-7-888-0-0000-7-888-0-0000----0-0000----0-0000------|
Intro 2
Guitar 1 plays the intro while guitar 2 plays this three times
e|-----------------------------------------------------------------------------|
B|-----------------------------------------------------------------------------|
G|-----------------------------------------------------------------------------|
D|----10-----------------------------------------------------------------------|
A|5/8-8------------------------------------------------------------------------|
E|----8------------------------------------------------------------------------|


Both Guitars, you can figure out the timing
e|---------------------------------------------------------------------------|
B|---------------------------------------------------------------------------|
G|---------------------------------------------------------------------------|
D|---------------------------------------------------------------------------|
A|---------------------------88-888-77-777-33-333-3333-----------------------|
E|0000000-00000000-000-00000-88-888-77-777-33-333-3333-----------------------|

e|-----------------------------------------------------------------------------|
B|-----------------------------------------------------------------------------|
G|-----------------------------------------------------------------------------|
D|1010-101010--------55-555-5555-----------------------------------------------|
A|8-8---8-8-8-77-777-33-333-3333-----X2----------------------------------------|
E|8-8---8-8-8-77-777-33-333-3333-----------------------------------------------|

e|-----------------------------------------------------------------------------|
B|-----------------------------------------------------------------------------|
G|-----------------------------------------------------------------------------|
D|------------------10---------10----------------------------------------------|
A|--------------------8-7---------8-7---------------------------X2-------------|
E|0000-00000-0000--------00-000--------00-000-7-888-00-000-7-888---------------|

|
Breakdown, figure out the timing yourself its not that difficult
e|---------------------------------------------------------------------------|
B|---------------------------------------------------------------------------|
G|---------------------------------------------------------------------------|
D|---------------------------------------------------------------------------|
A|-----------------------------------0000000-000000--------------------------|
E|00000000-00000000-00000000-0000000-0000000-000000--------------------------|
Outro guitar 1
e|-----------------------------------------------------------------------------|
B|-----------------------------------------------------------------------------|
G|-----------------------------------------------------------------------------|
D|---------------10------------------------------------------------------------|
A|--8-7-5-----------8-7------------------------------X4------------------------|
E|0-------000-00--------000-00-7-888-000-00-7-888------------------------------|

|Guitar 2
e|---------------------------------------------------------------------------|
B|---------------------------------------------------------------------------|
G|---------------------------------------------------------------------------|
D|----10101010101010---------------------------------------------------------|
A|5/8-8-8-8-8-8-8-8----X4----------------------------------------------------|
E|----8-8-8-8-8-8-8----------------------------------------------------------|



************************************

| /   slide up
| \   slide down
| h   hammer-on
| p   pull-off
| ~   vibrato
| +   harmonic
| x   Mute note
| b   Bend
| pb  Pre-bend
| br  Bend release
| pbr Pre-bend release
| brb Bend release bend

************************************
comments
We did not receive enough feedback on this tab! Please rate:
print report bad tab
1 2 3 4 5
I want to post or [tab]
guest
You may want to rate the tab now too:
select rating
Please do not post tabs as comments. Select "correction" instead!