Oops, an error
Loading. Please wait.

Looking A Gifthorse In The Mouth Bass Tab

1,808 views 1 this week
no commentswrite comment
1 2 3 4 5
please rate
add to favorites
launch autoscroll
font size
0
reset
guitar tuner
Autoscroll
slow
fast
+/-
esc
set tempo
stop
Help us to improve Ultimate-Guitar.com Take our survey!
×
Author
Difficulty
Tuning
novice
B E A D F# B
EMMURE-looking a gift horse in the mouth

Tuning:DROP A#
i love this song,i think its one of there best
i dont know how accurate this is
but there is no other bass tabs for this that i could find
so i tabbed this out by ear,work off of it.


(thunder storm and guitar intro)0:00-0:42
E|-----------------------------------------------------------------------------|
B|-----------------------------------------------------------------------------|
G|-----------------------------------------------------------------------------|
B|-77-7--777-7--777-7--777-7--00-0--000-0--000-0--000-0------------------------|

E|-----------------------------------------------------------------------------|
B|-----------------------------------------------------------------------------|
G|-----------------------------------------------------------------------------|
B|-77-7--777-7--777-7--777-7--00-0--000-0--000-0--000-0------------------------|

E|-----------------------------------------------------------------------------|
B|-----------------------------------------------------------------------------|
G|-----------------------------------------------------------------------------|
B|-77-7--777-7--777-7--777-7--00-0--000-0--000-0--000-0--0---------------------|
"she called me captian.. 0:42-
E|-----------------------------------------------------------------------------|
B|-----------------------------------------------------------------------------|
G|------7-7-7-10-10-8-8-8-7-7-----------7-7-6-11-11-7-7-13-13------------------|
B|-7777-----------------------0-0-0-5-0----------------------------------------|

repeat most of this then mostly
flat notes
"where is my.. 1:41-2:09
E|-----------------------------------------------------------------------------|
B|-----------------------------------------------------------------------------|
G|------7-7-7-10-10-8-8-8-7-7-----------7-7-6-11-11-7-7-13-13------------------|
B|-7777-----------------------0-0-0-5-0----------------------------------------|

E|-----------------------------------------------------------------------------|
B|-----------------------------------------------------------------------------|
G|------7-7-7-10-10-8-8-8-7-7-----------7-7-6-11-11-7-7-13-13------------------|
B|-7777-----------------------0-0-0-5-0----------------------------------------|

mostly flat notes,not too hard
2:36-3:02
"you are the memory..
E|-----------------------------------------------------------------------------|
B|-----------------------------------------------------------------------------|
G|-----------------------------------------------------------------------------|
B|0---7-9--0---7-9--0---7-9--0---0---7-9--0---7-9--0---7-9--0---9-7------------|

you should be able to figure out the rest:]
Suggest correction
Give kudos to tab author, rate the tab!
1 2 3 4 5
comments
print report bad tab
guest
You may want to rate the tab now too:
select rating
Please do not post tabs as comments. Select "correction" instead!