Oops, an error
Loading. Please wait.

Looking A Gifthorse In The Mouth Tab

3,428 views 1 this week
2 commentsread comments
1 2 3 4 5
please rate
add to favorites
launch autoscroll
font size
0
reset
how to read this tab
guitar tuner
Tab Pro tools
  • play this tab
  • loop segment
  • change instrument
  • show fretboard
  • metronome
×
Best way to learn
"Looking A Gifthorse In The Mouth"
Autoscroll
slow
fast
+/-
esc
set tempo
stop
Contributor
Difficulty
Tuning
novice
A# F A# D# G C
Song:Looking A Gift Horse In The Mouth
Artist: Emmure
Album: The Complete Guide To Needlework (EP)
Tabbed by:SensesFail_Dude
Tuning: A# (A# F A# D# G C)

Notes:I only know guitar 2's intro, im still
working on the solo, and you have to figure the
rhythm out for the song yourself, i just kinda
gave you an idea on how to do it.




x = mute string
~ = hold note
. = palm mute
V = vibrato
b = bend
/ = forward slide
h = hammer-on
p = pull-off


Intro- 0:08-0:41 (thunder and rain)
Guitar 1
C |---------------------------------------------------------------------------|\
G |---------------------------------------------------------------------------| \
D#|-15-15-15--15--14-14-14--14--17-17-17--17--10--10-10--10-------------------|  \
A#|-xx-xx-xx--xx--xx-xx-xx--xx--xx-xx-xx--xx---x--x--x---x--------------------|   \
F |-13-13-13--13--12-12-12--12--15-15-15--15---8--8--8---8--------------------|    \
A#|---------------------------------------------------------------------------|     |
                                                                                    |4x's
C |---------------------------------------------------------------------------|     |    
G |---------------------------------------------------------------------------|    /
D#|-15-15-15--15--14-14-14--14--10-10-10--10--9-9-9--9------------------------|   /
A#|-xx-xx-xx--xx--xx-xx-xx--xx---x--x--x---x--x-x-x--x------------------------|  /
F |-13-13-13--13--12-12-12--12---8--8--8---8--7-7-7--7------------------------| /
A#|---------------------------------------------------------------------------|/


Intro- 0:17-0:40 (comes in after guitar 1 plays his part once)
Guitar 2
C |---------------------------------------------------------|---------------|
G |---------------------------------------------------------|this on 3 time |
D#|--------------------------------2x's---------------------|---------------|
A#|---------------------------------------------------------|---------------|
F |-88-8-888-8-888-8-888-8-888-8-8--00-0-000-0-000-0-000-0-0|------0~-------|
A#|-88-8-888-8-888-8-888-8-888-8-8--00-0-000-0-000-0-000-0-0|------0~-------|
    .. . ... . ... . ... . ... . .  .. . ... . ... . ... . .

Verse- 0:41-0:57  She Called Me Captain...
C |---------------------------------------------------------------------------|
G |---------------------------------------------------------------------------| 
D#|-15-15-15--15--14-14-14--14--17-17-17--17--10--10-10--10-------------------| 
A#|-xx-xx-xx--xx--xx-xx-xx--xx--xx-xx-xx--xx---x--x--x---x--------------------| 
F |-13-13-13--13--12-12-12--12--15-15-15--15---8--8--8---8--------------------| 
A#|---------------------------------------------------------------------------| 


C |---------------------------------------------------------------------------|
G |---------------------------------------------------------------------------|
D#|-/15-15-15--15-10-10-10-10--10--9-9-9-9--9---------------------------------|
A#|--xx-xx-xx--xx--x--x--x--x---x--x-x-x-x--x---------------------------------|
F |-/13-13-13--13--8--8--8--8---8--7-7-7-7--7---------------------------------|
A#|---------------------------------------------------------------------------|

C |---------------------------------------------------------------------------|
G |---------------------------------------------------------------------------| 
D#|-15-15-15--15--14-14-14--14--17-17-17--17--10--10-10--10-------------------| 
A#|-xx-xx-xx--xx--xx-xx-xx--xx--xx-xx-xx--xx---x--x--x---x--------------------| 
F |-13-13-13--13--12-12-12--12--15-15-15--15---8--8--8---8--------------------| 
A#|---------------------------------------------------------------------------| 

C |---------------------------------------------------------------------------|
G |---------------------------------------------------------------------------|
D#|-12/14-14-14-14--14-15-15-15-15--15-17-17-17-17--17/19-19-19-19--19--------|
A#|-xx-xx-xx-xx-xx--xx-xx-xx-xx-xx--xx-xx-xx-xx-xx--xx-xx-xx-xx-xx--xx--------|
F |-10/12-12-12-12--12/13-13-13-13--13/15-15-15-15--15/17-17-17-17--17--------|
A#|---------------------------------------------------------------------------|

Verse- 0:58-1:09(cont.) What am I supposed to do now...
C |---------------------------------------------------------------------------|
G |---------------------------------------------------------------------------| 
D#|-15-15-15--15--14-14-14--14--17-17-17--17--10--10-10--10-------------------| 
A#|-xx-xx-xx--xx--xx-xx-xx--xx--xx-xx-xx--xx---x--x--x---x--------------------| 
F |-13-13-13--13--12-12-12--12--15-15-15--15---8--8--8---8--------------------| 
A#|---------------------------------------------------------------------------| 

C |---------------------------------------------------------------------------|
G |---------------------------------------------------------------------------|
D#|-/15-15-15--15-10-10-10-10--10--9-9-9-9--9---------------------------------|
A#|--xx-xx-xx--xx--x--x--x--x---x--x-x-x-x--x---------------------------------|
F |-/13-13-13--13--8--8--8--8---8--7-7-7-7--7---------------------------------|
A#|---------------------------------------------------------------------------|

C |---------------------------------------------------------------------------|
G |---------------------------------------------------------------------------| 
D#|-15-15-15--15--14-14-14--14--17-17-17--17--10--10-10--10-------------------| 
A#|-xx-xx-xx--xx--xx-xx-xx--xx--xx-xx-xx--xx---x--x--x---x--------------------| 
F |-13-13-13--13--12-12-12--12--15-15-15--15---8--8--8---8--------------------| 
A#|---------------------------------------------------------------------------| 

Chorus(?)- 1:10-1:20     | 1:21   Now that ive thrown you away...
C |----------------------|-----------------------------------------------------|
G |----------------------|-----------------------------------------------------|
D#|----------------------|-----------------------------------------------------|
A#|----------------------|-----------------------------------------------------|
F |-00-0000-0000-000-0000|--000-000-00-----------------------------------------|
A#|-00-0000-0000-000-0000|--000-000-00-----------------------------------------|
    .. .... .... ... ....   ... ... ..

Chorus(?)cont. 1:25-1:40 This is the last song...
C |---------------------------------------------------------------------------|
G |---------------------------------------------------------------------------|
D#|------------------------------------------14-14-14-------------14h15p14-14-|
A#|------------------------------------------xx-xx-xx-------------------------|
F |-0-000-00-0-0--0-000-00-0-0--0-000-00-0-0-12-12-12-0-000-00-0-0------------|
A#|-0-000-00-0-0--0-000-00-0-0--0-000-00-0-0----------0-000-00-0-0------------|
    . ... .. . .  . ... .. . .  . ... .. . .          . ... .. . .

Verse 2- 1:41-1:57 Where is my closure...
C |---------------------------------------------------------------------------|
G |---------------------------------------------------------------------------| 
D#|-15-15-15--15--14-14-14--14--17-17-17--17--10--10-10--10-------------------| 
A#|-xx-xx-xx--xx--xx-xx-xx--xx--xx-xx-xx--xx---x--x--x---x--------------------| 
F |-13-13-13--13--12-12-12--12--15-15-15--15---8--8--8---8--------------------| 
A#|---------------------------------------------------------------------------| 


C |---------------------------------------------------------------------------|
G |---------------------------------------------------------------------------|
D#|-/15-15-15--15-10-10-10-10--10--9-9-9-9--9---------------------------------|
A#|--xx-xx-xx--xx--x--x--x--x---x--x-x-x-x--x---------------------------------|
F |-/13-13-13--13--8--8--8--8---8--7-7-7-7--7---------------------------------|
A#|---------------------------------------------------------------------------|

C |---------------------------------------------------------------------------|
G |---------------------------------------------------------------------------| 
D#|-15-15-15--15--14-14-14--14--17-17-17--17--10--10-10--10-------------------| 
A#|-xx-xx-xx--xx--xx-xx-xx--xx--xx-xx-xx--xx---x--x--x---x--------------------| 
F |-13-13-13--13--12-12-12--12--15-15-15--15---8--8--8---8--------------------| 
A#|---------------------------------------------------------------------------| 

C |---------------------------------------------------------------------------|
G |---------------------------------------------------------------------------|
D#|-12-14-14-14-14--14-15-15-15-15--15-17-17-17-17--17/19-19-19-19--19--------|
A#|-xx-xx-xx-xx-xx--xx-xx-xx-xx-xx--xx-xx-xx-xx-xx--xx-xx-xx-xx-xx--xx--------|
F |-10/12-12-12-12--12/13-13-13-13--13/15-15-15-15--15/17-17-17-17--17--------|
A#|---------------------------------------------------------------------------|

Verse 2(cont)- 1:58-2:09 ...Waiting for this new perspective
C |---------------------------------------------------------------------------|
G |---------------------------------------------------------------------------| 
D#|-15-15-15--15--14-14-14--14--17-17-17--17--10--10-10--10-------------------| 
A#|-xx-xx-xx--xx--xx-xx-xx--xx--xx-xx-xx--xx---x--x--x---x--------------------| 
F |-13-13-13--13--12-12-12--12--15-15-15--15---8--8--8---8--------------------| 
A#|---------------------------------------------------------------------------| 

C |---------------------------------------------------------------------------|
G |---------------------------------------------------------------------------|
D#|-/15-15-15--15-10-10-10-10--10--9-9-9-9--9---------------------------------|
A#|--xx-xx-xx--xx--x--x--x--x---x--x-x-x-x--x---------------------------------|
F |-/13-13-13--13--8--8--8--8---8--7-7-7-7--7---------------------------------|
A#|---------------------------------------------------------------------------|

C |---------------------------------------------------------------------------|
G |---------------------------------------------------------------------------| 
D#|-15-15-15--15--14-14-14--14--17-17-17--17--10--10-10--10-------------------| 
A#|-xx-xx-xx--xx--xx-xx-xx--xx--xx-xx-xx--xx---x--x--x---x--------------------| 
F |-13-13-13--13--12-12-12--12--15-15-15--15---8--8--8---8--------------------| 
A#|---------------------------------------------------------------------------| 

Chours(?)-2:10-2:17 ...Now that ive thrown you away...
C |----------------------|-----------------------------------------------------|
G |----------------------|-----------------------------------------------------|
D#|----------------------|---------------15-14-14------------------------------|
A#|----------------------|---------------xx-xx-xx------------------------------|
F |-00-0000-0000-000-0000|--000-000-00---13-12-12------------------------------|
A#|-00-0000-0000-000-0000|--000-000-00-----------------------------------------|
    .. .... .... ... ....   ... ... ..

SICKASS BREAKDOWN!- 2:18-2:47 OH! im still waiting....
C |---------------------------------------------------------------------------|
G |-----------------------------------------------16--16----------------------|
D#|-----------------------------------------------19--19----------------------|
A#|---------------------------------------------------------------------------|
F |-000-000-000~-000-000-000~-000-000-000~-000-00----0--0-000-000-000~--------|
A#|-111-111-111~-111-111-111~-111-111-111~-000-00----0--0-111-111-111~--------|
    ... ... ..   ... ... ..   ... ... ..   ... ..         ... ... ..

C |---------------------------------------------------------------------------|
G |---------------------------------------------------------------------------|
D#|---------------------------------------------------------------------------|
A#|---------------------------------------------------------------------------|
F |-000-000-000~--8-10-0~-8-10-0---------------8-10-0-------------------------|
A#|-111-111-110~--8-10-0~-8-10-0----pickslide--8-10-0--pickslide--------------|


Solo- 2:52-3:01
STILL WORKING ON THE SOLO, ILL HAVE IT ON HERE SOON, I PROMISE =D



Outro- 3:02-3:48 You are the memory that just won't seem to fade...
C |---------------------------------------------------------------------------|
G |---------------------------------------------------------------------------|
D#|---------------------------------------------------------------------------|
A#|-1-1--111-11-1-1-111-1-1-1-111-1-1-111-11-11-1-----------------------------|
F |-0-0--000-00-0-0-000-0-0-0-000-0-0-000-00-00-0-0--00-0000-00-0000-0000-----|
A#|-1-1--111-11-1-1-111-1-1-1-111-1-1-111-11-11-1p0--00-0000-00-0000-0000-----|
    . .  ... .. . . ... . . . ... . . ... .. ..      .. .... .. .... ....
C |---------------------------------------------------------------------------|
G |------------------11---------------------11------------------11------------|
D#|------------------14---------------------14------------------14------------|
A#|---------------------------------------------------------------------------|
F |-00000-00-0000-00-----00000-000-00-00000-----000-0000-000-00---------------|
A#|-00000-00-0000-00-----00000-000-00-00000-----000-0000-000-00---------------|
    ..... .. .... ..     ..... ... .. .....     ... .... ... ..
C |---------------------------------------------------------------------------|
G |--------------------------11-----------------------------------------------|
D#|--------------------------14-----------------------------------------------|
A#|---------------------------------------------------------------------------|
F |-00000-00-000-0-0-0-0-000--------------------------------------------------|
A#|-00000-00-000-0-0-0-0-000--------------------------------------------------|
    ..... .. ... . . . . ...
comments
We did not receive enough feedback on this tab! Please rate:
print report bad tab
1 2 3 4 5
2 comments total.
0 reply
silentshane420 wrote on September 9 2008, 11:34 am

its good dude, but i really wish you could tab the lead guitarists parts along with the rythem guitarists parts. 4****'s. it also seemed like ou missed some stuff. im not really sure what though lol.

0 reply
SensesFail_dude wrote on October 5 2008, 02:46 pm

i wish i knew both guitar parts, that'd be sick lol

I want to post or [tab]
guest
You may want to rate the tab now too:
select rating
Please do not post tabs as comments. Select "correction" instead!