Oops, an error
Loading. Please wait.

Rusted Over Wet Dreams Tab

version 1
version 1

Whole song

Interactive

23,525 views 1 this week
9 commentsread comments
1 2 3 4 5
accurate
x 7
add to favorites
launch autoscroll
font size
0
reset
how to read this tab
guitar tuner
Autoscroll
slow
fast
+/-
esc
set tempo
stop
Help us to improve Ultimate-Guitar.com Take our survey!
×
Author
Difficulty
intermediate
-------------------------------------------------------------------------------
                             RUSTED OVER WET DREAMS - Emmure
-------------------------------------------------------------------------------
Tabbed by:Marauder319
Tuning:C
       G
       D#
       A#
       F
       A#

0:00

C |-------------------------------------------------------------|---------------|
G |-------------------------------------------------------------|---------------|
D#|----14\-15\-17-----14---14\-15\-17---------------------------|---------------|
A#|-8--x-\-x-\-x-(8X)-x----x-\-x-\-x--(8X)--14h15--14--10\12/10-|-8\10/8--------|
F |-8--12\-13\-15-----12---12\-13\-15---------------------------|---------------|
A#|-8-----------------------------------------------------------|---------------|

0:15

C |------------------------------------------14----14----14----14-------------|
G |--------------------------------------------15----15----15----15-----------|
D#|----14\-15\-17-----14---14\-15\-17------12----12----12----12---------------|
A#|-8--x-\-x-\-x-(8X)-x----x-\-x-\-x--(8X)------------------------------------|
F |-8--12\-13\-15-----12---12\-13\-15-----------------------------------------|
A#|-8-------------------------------------------------------------------------|

0:27

C-|---14----14----14----14--------------------------------14---------14-------|
G-|-----12----12----12----12---------------------------------15--15----15-----|
D#|-15----15----15----15--------14\-15\-17-----14-14\-15\------12--12---------|
A#|---------------------------8-x-\-x-\-x--(8X)x--x-\-x\----------------------|
F-|---------------------------8-12\-13\-15-----12-12\-13\---------------------|
A#|---------------------------8-----------------------------------------------|

0:36

C-|--------|--------------------------------------------------------------------|
G-|--------|--------------------------------------------------------------------|
D#|--------|--------------------------------------------------------------------|
A#|--------|--------------------------------------------------------------------|
F-|-000000-|-0-0-00-0000--------8-8-88-8888-10-10-1010-10101010-----------------|
A#|-000000-|-0-0-00-0000--------8-8-88-8888-10-10-1010-10101010-----------------|
| ......   . . .. ....        . . .. .... .  .  . .  . . . .  (6X)

0:51

C-|---------------------------------------------------------------------------|
G-|---------------------------------------------------------------------------|
D#|---------------------------------------------------------------------------|
A#|-10-----10-----10-----10---------------------------------------------------|
F-|----8-7----8-7----8-7----8-7--8(+)-----------------------------------------|
A#|---------------------------------------------------------------------------|

0:54

C-|------------------------------------------------|--------------------------|
G-|------------------------------------------------|--------------------------|
D#|-17------------17-------------------------------|--------------------------|          (4X)
A#|----15-14--------15-10\14---14h15-14/10---------|--14h15-17-15-14-15-------|
F-|------------------------------------------------|--------------------------|
A#|------------------------------------------------|--------------------------|

1:06

C-|---------------------------------------12-13-------------------------------|
G-|---------------------------------------------------------------------------|
D#|-17------17------17------17------17----------------------------------------|
A#|---15-14---15-14---15-14---15-14---15--------------------------------------|
F-|---------------------------------------------------------------------------|
A#|---------------------------------------------------------------------------|

1:09

C-|-------------------------------------------12-13---------------------------|
G-|---------------------------------------------------------------------------|
D#|--------17-------17-------17-------17--------------------------------------|
A#|-14-15----14-15----14-15----14-15------14----------------------------------|
F-|---------------------------------------------------------------------------|
A#|---------------------------------------------------------------------------|

1:11

C-|-----------------------------------------------------------------------------|
G-|-----------------------------------------------------------------------------|
D#|-17------17------17------17-----17-------------------------------------------|
A#|---15-14---15-14---15-14---15-14---15---14-14h15-10--------------------------|
F-|-----------------------------------------------------------------------------|
A#|-----------------------------------------------------------------------------|

1:17

C-|-----------------------------------------------------------------------------|
G-|-----------------------------------------------------------------------------|
D#|-----------------17-------17-------------------------------------------------|
A#|-15--14--10\12------15-14----15----------------------------------------------|
F-|-----------------------------------------------------------------------------|
A#|-----------------------------------------------------------------------------|

1:22

C-|-----------------------------------------------------------------------------|
G-|-----------------------------------------------------------------------------|
D#|----------------------------------------------17-------17--------------------|
A#|-------------------------------------------------15-14---15------------------|
F-|-0-0-000--0-0-000-0-0-000-00-00-00-0-000-000---------------------------------|
A#|-0-0-000--0-0-000-0-0-000-00-00-00-0-000-000---------------------------------|
| . . ...  . . ... . . ... .. .. .. . ... ...
           (Listen for the rythem)
1:32

C-|-----------------------------------------------------------------------------|
G-|-----------------------------------------------------------------------------|
D#|-----------------------------------------------------------------------------|
A#|-15-14--10\12-/10-10\12--\15--/14--\17---------------------------------------|
F-|-----------------------------------------------------------------------------|
A#|-----------------------------------------------------------------------------|


1:42
C-|------------------------------------------------|--------------------------|
G-|------------------------------------------------|--------------------------|
D#|-17------------17-------------------------------|--------------------------|          (4X)
A#|----15-14--------15-10\14---14h15-14/10---------|--14h15-17-15-14-15-------|
F-|------------------------------------------------|--------------------------|
A#|------------------------------------------------|--------------------------|

C-|---------------------------------------12-13-------------------------------|
G-|---------------------------------------------------------------------------|
D#|-17------17------17------17------17----------------------------------------|
A#|---15-14---15-14---15-14---15-14---15--------------------------------------|
F-|---------------------------------------------------------------------------|
A#|---------------------------------------------------------------------------|

C-|-------------------------------------------12-13---------------------------|
G-|---------------------------------------------------------------------------|
D#|--------17-------17-------17-------17--------------------------------------|
A#|-14-15----14-15----14-15----14-15------14----------------------------------|
F-|---------------------------------------------------------------------------|
A#|---------------------------------------------------------------------------|

2:00

C-|------------------------------------------------------------------------------|
G-|------------------------------------------------------------------------------|
D#|-17------17------17------17-----17---------------------------0----------------|
A#|---15-14---15-14---15-14---15-14---15---14-14h15-10-10(+)----0----------------|
F-|-------------------------------------------------------------0----------------|
A#|------------------------------------------------------------------------------|

2:10

C-|-----------------------------------------------------------------------------|
G-|-----------------------------------------------------------------------------|
D#|-----------------------------------------------------------------------------|
A#|-000000--0-------------------------------------------------------------------|
F-|-000000--0------------------------------0--0---------------------------------|
A#|-111111--0--------pickslide-------------0--0---------------------------------|
| ......                                 .  .
(what shall!)

2:19

C-|-----------------------------------------------------------------------------|
G-|-----------------------------------------------------------------------------|
D#|-----------------------------------------------------------------------------|
A#|-0000----00-0000---4324324--0000--00-0000------------------------------------|
F-|-0000----00-0000---4324324--0000--00-0000------------------------------------|
A#|-1111----11-1111---4324324--1111--11-1111--pickslide-------------------------|
| ....    .. ....   .......  ....  .. ....


2:34

C-|---------------------------------------------------------------------------------------------|
G-|---------------------------------------------------------------------------------------------|
D#|---------------------------------------------------------------------------------------------|
A#|-0000-------0--------------------------------------------------------------------------------|
F-|-0000-------0--------------------------------------------------------------------------------|
A#|-1111-------0--------------------------------------------------------------| ....     (2:42--|

Figure out the timing.^^^

| /  slide up
| \  slide down
| h  hammer-on
| p  pull-off
| ~  vibrato
| +  harmonic
| x  Mute note
| .  Palm Mute
Suggest correction
comments
print report bad tab
9 comments total. Showing first comments.
0 reply
silentshane420 10 wrote on January 22 2008, 12:35 am

OMFG!!!! FINALLY!! someone finally made an emmure tab!!! and its fukkin correct!! good fukkin job!!

0 reply
speedmetal777 92 wrote on January 24 2008, 11:55 pm

not bad. its missing a few chug parts, and this is only one guitar (the other guitar is playing something completely different through out most of the song).
but other than that its a really nice tab

0 reply
tylerxviolence 41 wrote on June 4 2008, 03:17 pm

not bad, i like it.

guest
You may want to rate the tab now too:
select rating
Wanna post a correction for this tab? Suggest correction