Oops, an error
Loading. Please wait.

Solar Flare Homicide Tab

version 1
version 1

Intro

Whole song

Interactive

31,603 views 39 this week
3 commentsread comments
1 2 3 4 5
excellent!
x 9
add to favorites
launch autoscroll
font size
0
reset
how to read this tab
guitar tuner
Tab Pro tools
  • play this tab
  • loop segment
  • change instrument
  • show fretboard
  • metronome
Autoscroll
slow
fast
+/-
esc
set tempo
stop
Contributor
Difficulty
Tuning
intermediate
A E A D F# B
Drop A: AEADGBe (7 string guitar)
Intro 1
e|--------------------------------------------------------|
B|--------------------------------------------------------|
G|--------------------------------------------------------|
D|--------------------------------------------------------|
A|--------------------------------------------------------|
E|--------------------------------------------------------|
A|0000-00-00-00-1313131312121212-00-00-00-1313131312121212|
  .... 
e|-------------------------------------------|
B|-------------------------------------------|
G|-------------------------------------------|
D|-------------------------------------------| (repeat 3 more times)
A|-------------------------------------------|
E|-------------------------------------------|
A|-00-00-00-1313131312121212\-77777777-8888--|
                         
Intro 2
e|------------------------------|
B|------------------------------|
G|------------------------------|
D|------------------------------| (the last 0 chord is either that or a 2 chord.
A|------------------------------|  its hard to tell)
E|22-11-0-22-11-0-22-11-0-0-1-0-|
A|22-11-0-22-11-0-22-11-0-0-1-0-|
  .. .. . .. .. . .. .. . . . 

e|----------------------------------|
B|----------------------------------|
G|----------------------------------|
D|----------------------------------|
A|----------------------------------|
E|22-11-0-22-11-0-22-11-0-----------|
A|22-11-0-22-11-0-22-11-0-0000-1111-|
  .. .. . .. .. . .. .. . .... ....  
                          (slow these down but only slightly)

e|------------------------------|
B|------------------------------|
G|------------------------------|
D|------------------------------|
A|------------------------------|
E|22-11-0-22-11-0-22-11-0-0-1-0-|
A|22-11-0-22-11-0-22-11-0-0-1-0-|
  .. .. . .. .. . .. .. . . . 

e|----------------|
B|----------------|
G|----------------|
D|----------------|
A|----------------|
E|22-11-0-22-11-0-|
A|22-11-0-22-11-0-|
  .. .. . .. .. . 

Verse 1
e|-----------------------19--19-|
B|-----------------------23--23-|
G|------------------------------|
D|------------------------------| (repeat twice)
A|------------------------------|
E|0-00-0-0-00-0-0-00-0-0----0---|
A|0-00-0-0-00-0-0-00-0-0----0---|
  . .. . . .. . . .. . .    .

e|---------------------------------------------------------|
B|---------------------------------------------------------|
G|---------------------------------------------------------|
D|---------------------------------------------------------|
A|---------------------------------------------------------|
E|22-11-0-22-11-0-22-11-0-22-11-0-22-11-0-22-11-0-22-11-0-0|
A|22-11-0-22-11-0-22-11-0-22-11-0-22-11-0-22-11-0-22-11-0-0|
  .. .. . .. .. . .. .. . .. .. . .. .. . .. .. . .. .. .

Verse 1.5
e|---------------------| (for the record scratching sounds, I lightly place my 
B|---------------------|  hand over the strings at the 3rd fret and slide it
G|---------------------|  down to the 1st fret and back to the 3rd for this 
D|---------------------|  (youll see more of this in the tab. just do the same 
A|1--1--1--1--*3\*1/*3-|  thing for the frets I say))
E|0--0--0--0--*3\*1/*3-|
A|1--1--1--1--*3\*1/*3-|
  .  .  .  .

e|------------------|
B|------------------|
G|------------------|
D|------------------|
A|1--1--1-1--1--1-1-|
E|0--0--0-0--0--0-0-|
A|1--1--1-1--1--1-1-|
  .  .  . .  .  . .

e|------------------------|
B|------------------------|
G|------------------------|
D|------------------------|
A|1--1--1--1--*1/*3\*1/*3-|
E|0--0--0--0--*1/*3\*1/*3-|
A|1--1--1--1--*1/*3\*1/*3-|

e|-------------------|
B|-------------------|
G|-------------------|
D|-------------------|
A|1--1--1-1--1--1-1-1|
E|0--0--0-0--0--0-0-0|
A|1--1--1-1--1--1-1-1|
  .  .  . .  .  . . .

e|------------------------|
B|------------------------|
G|------------------------|
D|------------------------|
A|1-1-1-1-1--1-1-1--1--1-1|
E|0-0-0-0-0--0-0-0--0--0-0|
A|1-1-1-1-1--1-1-1--1--1-1|
  . . . . .  . . .  .  . .

e|----------------------------------|
B|----------------------------------|
G|----------------------------------|
D|----------------------------------|
A|1-1-1-1-1--1-1-1--1--1-*3\*1/*3\*1|
E|0-0-0-0-0--0-0-0--0--0-*3\*1/*3\*1|
A|1-1-1-1-1--1-1-1--1--1-*3\*1/*3\*1|
  . . . . .  . . .  .  . 

e|--------------------------|
B|--------------------------|
G|--------------------------|
D|--------------------------|
A|1-1-1-1-1--11111-1--1--1-1|
E|0-0-0-0-0--00000-0--0--0-0|
A|1-1-1-1-1--11111-1--1--1-1|
  . . . . .  ..... .  .  . .

e|--------------------------|
B|--------------------------|
G|--------------------------|
D|--------------------------|
A|1-1-1-1-1--11111-1--1--1-1|
E|0-0-0-0-0--00000-0--0--0-0|
A|1-1-1-1-1--11111-1--1--1-1|
  . . . . .  ..... .  .  . .

Back to intro 1
e|-----------------|
B|-----------------|
G|-----------------|
D|-----------------| (repeat once)
A|0----------------|
E|0-----4----2-----|
A|0-------5-2--2b3-|

Breakdown 2
e|-----------|
B|-----------|
G|-----------|
D|-----------|
A|0--0--0--0-|
E|0--0--0--0-|
A|1--1--1--1-|
  .  .  .  .

e|----------------------------------------|
B|----------------------------------------|
G|----------------------------------------|
D|----------------------------------------| (play 3 times)
A|0-*1/*3\*1-0-*1/*3\*1-0-*1/*3\*1-0-*3/*1|
E|0-*1/*3\*1-0-*1/*3\*1-0-*1/*3\*1-0-*3/*1|
A|0-*1/*3\*1-0-*1/*3\*1-0-*1/*3\*1-0-*3/*1|
  .          .          .          .

e|-----------|
B|-----------|
G|-----------|
D|-----------|
A|0--0--0--0-|
E|0--0--0--0-|
A|1--1--1--1-|
  .  .  .  .

e|----------------------------------------|
B|----------------------------------------|
G|----------------------------------------|
D|----------------------------------------|
A|0-*1/*3\*1-0-*1/*3\*1-0-0-00------------|
E|0-*1/*3\*1-0-*1/*3\*1-0-0-00------------|
A|0-*1/*3\*1-0-*1/*3\*1-0-0-00------------|
  .          .          . . ..

Play intro 1 till the end of the song. Hope this helps, and I hope you enjoy.
Any comments, questions, feel free to ask.

*updates: intro 1 (removed the 3s)
verse i (from 17/22 to 19/23)
comments
print report bad tab
3 comments total. show 1 bad comment
-2 reply
Kjalk wrote on July 25 2012, 12:18 pm

Not even close dude @EmoJesus26
none of their songs are in drop Bb
they play drop A

0 reply
HGaniere wrote on January 13 2013, 02:35 pm

Just when I thought they couldn't get any worse, I saw their tabs...

I want to post or [tab]
guest
You may want to rate the tab now too:
select rating
Please do not post tabs as comments. Select "correction" instead!