Oops, an error
Loading. Please wait.

Sound Wave Superior Bass Tab

version 1
version 1

Whole song

Interactive

4,541 views 3 this week
no commentswrite comment
1 2 3 4 5
please rate
add to favorites
launch autoscroll
font size
0
reset
guitar tuner
Autoscroll
slow
fast
+/-
esc
set tempo
stop
Help us to improve Ultimate-Guitar.com Take our survey!
×
Author
Difficulty
#----------------------------------PLEASE NOTE---------------------------------#
#This file is the author's own work and represents their interpretation of the #
#song. You may only use this file for private study, scholarship, or research. #
#------------------------------------------------------------------------------#

SOUND WAVE SUPERIOR (Bassline)
As recorded by Emmure
(From the 2008 Album THE RESPECT ISSUE)


	

Words and Music by Emmure

Gtr I (Bb F Bb Eb) - 'Bass'
Gtr II (Bb F Bb Eb) - 'Slap Bass'

 Intro
  Dancefight Q=123
 4/4
  Gtr I
  Wx3          H..       E
|------------|-------------||
|------------|-------------||
|------------|-------------||
|------------|-----------0-||


   "I draw my line in the.."
    S S H.      E   S S H    S S S S S S
||----------------|----------------------|
||o---------------|----------------------|
||o---------------|----------------------|
||--0-0---------0-|-0-0------0-0-0-0-0-0-|


  S S H.      E   S S Q  S S E E E E     W
|---------------|---------------------||------||
|---------------|--------------------o||------||
|---------------|--------------------o||------||
|-0-0---------0-|-0-0------0-1s3-1s3--||------||


 "I'm here to break the.."
 3/4
  S S S E E S E E   S S S E E S E E
|-----------------|-----------------|
|-----------------|-----------------|
|-----------------|-----------------|
|-0-0-0-0-0-0-0-0-|-0-0-0-0-0-0-0-0-|


 7/8                 5/4
  S S S E E E S E E   S S S E E S E E S S E  Q  a
|-------------------|-----------------------------||
|-------------------|-----------------------------||
|-------------------|-----------------------------||
|-0-0-0-0-0-0-0-0-0-|-0-0-0-0-0-0-0-0-0-0-0-15s=0-||


 "I never wanted it to.."
 4/4
  S S E H    E S S   S S E H.        E E H    E S S   S S E Q.   S S E  E a
|------------------|---------------|----------------|-----------------------|
|------------------|---------------|----------------|-----------------------|
|------------------|---------------|----------------|-----------------------|
|-1-1-1--------1-1-|-1-1-1---------|-1-1--------1-1-|-1-1-1------1-1-1-15s0-|


  S E. S E. S E. S E.   S E. S E. S E. S E.
|---------------------|---------------------|
|---------------------|---------------------|
|---------------------|---------------------|
|-0-0--0-0--0-0--0-0--|-0-0--0-0--0-0--0-0--|


  S E. S E. S E. S E.   S E. S E. H
|---------------------|----------------|
|---------------------|----------------|
|---------------------|----------------|
|-0-0--0-0--0-0--0-0--|-0-0--0-0-------|


  S S E H    E S S   S S E H.        S S E E E E E E S S   S S E E E E E E E
|------------------|---------------|---------------------|-------------------||
|------------------|---------------|---------------------|-------------------||
|------------------|---------------|---------------------|-------------------||
|-1-1-1--------1-1-|-1-1-1---------|-1-1-1-1-1-1-1-1-1-1-|-1-1-1-1-1-1-1-1-1-||


 "...of my righteousness."
  S S S E E S S E. S S S S   +S  E S E E S S S E E S
|--------------------------|-------------------------|
|--------------------------|-------------------------|
|--------------------------|-------------------------|
|-0-0-0-0-0-0-0----0-0-0-0-|-(0)-0-0-0-0-0-0-0-0-0-0-|


  S Q..   S S S E E S   S Q..   S S S S E E
|---------------------|---------------------|
|---------------------|---------------------|
|---------------------|---------------------|
|-0-------0-0-0-0-0-0-|-0-------0-0-0-0---0-|


  S S S E E S S Q..     S S S E E S S Q..
|---------------------|---------------------|
|---------------------|---------------------|
|---------------------|---------------------|
|-0-0-0-0-0-0-0-------|-0-0-0-0-0-0-0-------|


  S S S S E E S S S E E S   S Q..   S S S E E.
|-------------------------|----------------------||
|-------------------------|----------------------||
|-------------------------|----------------------||
|-0-0-0-0---0-0-0-0-0-0-0-|-0-------1-1-1-1-1----||


   "...watch you fail."
    S E S S E S S E S S E S   S E S S E S S S S S S S S S
||--------------------------|------------------------------||
||o-------------------------|-----------------------------o||
||o-------------------------|-----------------------------o||
||--0-0-0-0-0-0-0-0-0-0-0-0-|-0-0-0-0-0-0-1p0-1h2-1p0-1h3--||


  S E S S E S S E S S S S S   S E S S E S S S S S S S S S
|---------------------------|-----------------------------|
|---------------------------|-----------------------------|
|---------------------------|-----------------------------|
|-0-0-0-0-0-0-0-0-0-1p0-1-1-|-0-0-0-0-0-0-1p0-1-1-1p0-1-1-|


  S E S S E S S E S S S S S   S E S S E S S S S S S S S S
|---------------------------|-----------------------------|
|---------------------------|-----------------------------|
|---------------------------|-----------------------------|
|-0-0-0-0-0-0-0-0-0-0-0-0-0-|-0-0-0-0-0-0-1p0-1-1-1p0-1-1-|


  Wx2
|--------||
|--------||
|--------||
|--------||


   "I draw my line in the.."
    S S H.      E   S S H    S S S S S S
||----------------|----------------------|
||o---------------|----------------------|
||o---------------|----------------------|
||--0-0---------0-|-0-0------0-0-0-0-0-0-|


  S S H.      E   S S H    E S S S S
|---------------|----------------------||
|---------------|---------------------o||
|---------------|---------------------o||
|-0-0---------0-|-0-0------0-0-0-0-0---||


 Breakdown
  S H.      +S  E   S S H    S S S S S S
|-----------------|----------------------|
|-----------------|----------------------|
|-----------------|----------------------|
|-0-0-------(0)-0-|-0-0------0-0-0-0-0-0-|


  S H.      +S  E   S S H    S S S S S S
|-----------------|-----------------------|
|-----------------|-----------------------|
|-----------------|-----------------------|
|-0-0-------(0)-0-|-0-0------0-0-0-0-0-0--|


  S H.      +S  E   S S H    S S S S S S   S H.      +S  E   S S H    E E E
|-----------------|----------------------|-----------------|-----------------|
|-----------------|----------------------|-----------------|-----------------|
|-----------------|----------------------|-----------------|-----------------|
|-0-0-------(0)-0-|-0-0------0-0-0-0-0-0-|-0-0-------(0)-0-|-0-0------0-0-0--|


                          H.=H     Slower H=H03
                                       5/4
  W          +W           +H     H      W        Q
|----------|------------|-------------|-------------||
|----------|------------|-------------|-------------||
|----------|------------|-------------|-------------||
|-0--------|-(0)--------|-(0)---------|-------------||


 Beatdown
  A Little Faster Q=108
 4/4
  S E. S E. +H       E E S S E S E. S E.
|------------------|---------------------|
|------------------|---------------------|
|------------------|---------------------|
|-1-1--1-1--(1)s===|=3-1-1-1-1-1-1--1-1--|


  S E. S E. +H       E S S S S S S S E. S E.
|------------------|-------------------------|
|------------------|-------------------------|
|------------------|-------------------------|
|-1-1--1-1--(1)s===|=3-1-1-1-1-1-1-1-1--1-1--|


  S E. S E. +H       E E E E S E. S E.
|------------------|-------------------|
|------------------|-------------------|
|------------------|-------------------|
|-1-1--1-1--(1)s===|=3-1-1-1-1-1--1-1--|


  S E. S E. +H       E S S S S S S E E E E
|------------------|-----------------------||
|------------------|-----------------------||
|------------------|-----------------------||
|-1-1--1-1--(1)s===|=3-1-1-1-1-1-1-2s3-4s5-||


   Outro
    Faster Q=118
    Gtr II
    S S S S S S S S S S S S S S S S   S S S S S S S S S S S S S S S S
||----------------------------------|----------------------------------||
||o---------------------------------|---------------------------------o||
||o---------------------------------|---------------------------------o||
||--0-0-0-0-0-0-0-0-0-0-0-0-0-0-0-0-|-0-0-0-0-0-0-0-0-0-0-0-0-0-0-0-0--||


  E H..         W
|-------------|------*|
|-------------|------*|
|-------------|------*|
|-0-----------|------*|



Duration Legend
---------------
W - whole; H - half; Q - quarter; E - 8th; S - 16th; T - 32nd; X - 64th; a - acciaccatura
+ - note tied to previous; . - note dotted; .. - note double dotted
Uncapitalized letters represent notes that are staccato (1/2 duration)
Irregular groupings are notated above the duration line
Duration letters will always appear directly above the note/fret number it represents the
duration for.  Duration letters with no fret number below them represent rests.  Multi-
bar rests are notated in the form Wxn, where n is the number of bars to rest for.  Low
melody durations appear below the staff

Tablature Legend
----------------
 h   - hammer-on
 p   - pull-off
 b   - bend
 pb  - pre-bend
 r   - bend release (if no number after the r, then release immediately)
 /\  - slide into or out of (from/to "nowhere")
 s   - legato slide
 S   - shift slide
 - natural harmonic
[n]  - artificial harmonic
n(n) - tapped harmonic
 ~   - vibrato
 tr  - trill
 T   - tap
 TP  - trem. picking
 PM  - palm muting
\n/  - tremolo bar dip; n = amount to dip
 \n  - tremolo bar down
 n/  - tremolo bar up
/n\  - tremolo bar inverted dip
 =   - hold bend; also acts as connecting device for hammers/pulls
 <> - volume swell (louder/softer)
 x   - on rhythm slash represents muted slash
 o   - on rhythm slash represents single note slash

Misc Legend
-----------
 |  - bar
||  - double bar
||o - repeat start
o|| - repeat end
*|  - double bar (ending)
 :  - bar (freetime)
 $  - Segno
 &  - Coda
Tempo markers -  = BPM(8/16=s8/s16), where s8 = swing 8ths, s16 = swing 16ths


** Generated using Power Tab Editor by Brad Larsen: The Official Power Tab Web Site
Suggest correction
What's this?
You can suggest a correction to this tab. Community and Mods will review your correction and vote to approve or reject it.
comments
We did not receive enough feedback on this tab! Please rate:
print report bad tab
1 2 3 4 5
guest
You may want to rate the tab now too:
select rating
Please do not post tabs as comments. Select "correction" instead!