Oops, an error
Loading. Please wait.

Sound Wave Superior Tab

version 1
version 1

Whole song

Interactive

14,492 views 1 this week
7 commentsread comments
1 2 3 4 5
accurate
x 4
add to favorites
launch autoscroll
font size
0
reset
how to read this tab
guitar tuner
Autoscroll
slow
fast
+/-
esc
set tempo
stop
Help us to improve Ultimate-Guitar.com Take our survey!
×
Author
Difficulty
#----------------------------------PLEASE NOTE---------------------------------#
#This file is the author's own work and represents their interpretation of the #
#song. You may only use this file for private study, scholarship, or research. #
#------------------------------------------------------------------------------#

SOUND WAVE SUPERIOR
As recorded by Emmure
(From the 2008 Album THE RESPECT ISSUE)

Transcribed by Jonathan Rose
        

Words and Music by Emmure

Gtr I (Bb F Bb Eb G C) - 'Left Channel'
Gtr II (Bb F Bb Eb G C) - 'Right Channel'
Gtr III (Bb F Bb Eb G C) - 'Guitar III'

 Intro
  Dancefight Q=123
  N.C.
 4/4
  Gtrs I, II (w/ flanger)
  S E E E E E S E E   S E E E E E S E E
|-------------------|-------------------|
|-------------------|-------------------|
|-------------------|-------------------|
|-------------------|-------------------|
|-------------------|-------------------|
|-0-0-0-0-0-0-0-0-0-|-0-0-0-0-0-0-0-0-0-|


                                      D5
                                      PM
  S E E E E E S E E   S E E E E E S E E
|-------------------|-------------------||
|-------------------|-------------------||
|-------------------|-------------------||
|-------------------|-------------------||
|-------------------|-----------------0-||
|-0-0-0-0-0-0-0-0-0-|-0-0-0-0-0-0-0-0-0-||


   "I draw my line in the.."
    D5
    Gtr I (w/o flanger)
    PM|                PM----|           PM--------|
    S S H.             E   S S H         S S S S S S
||-----------------------|---------------------------|
||o----------------------|---------------------------|
||-----------------------|---------------------------|
||-----------------------|---------------------------|
||o-0-0----------------0-|-0-0-----------0-0-0-0-0-0-|
||--0-0----------------0-|-0-0-----------0-0-0-0-0-0-|
|
|   Gtr II (w/o flanger)
|   PM-------------|   PM------------------|     PM
|   S E    E E E E S E E   S E   E E E E   S E   E
||-----------------------|---------------------------|
||o----------------------|---------------------------|
||-----------------------|---------------------------|
||-----------------------|---------------------------|
||o-0-0----0-0-0-0-0-0-0-|-0-0---0-0-0-0---0-0---0---|
||--0-0----0-0-0-0-0-0-0-|-0-0---0-0-0-0---0-0---0---|


                                       EbF5EbF5
  PM|                PM----|         PM
  S S H.             E   S S Q     S S E E E E
|----------------------|------------------------||
|----------------------|-----------------------o||
|----------------------|------------------------||
|----------------------|------------------------||
|-0-0----------------0-|-0-0---------0-1s3-1s3-o||
|-0-0----------------0-|-0-0---------0-1s3-1s3--||
|
| PM-------------|   PM--------------|
| S E    E E E E S E E   S E   E E   S E E E E
|----------------------|------------------------||
|----------------------|-----------------------o||
|----------------------|------------------------||
|----------------------|------------------------||
|-0-0----0-0-0-0-0-0-0-|-0-0---0-0---0-1s3-1s3-o||
|-0-0----0-0-0-0-0-0-0-|-0-0---0-0---0-1s3-1s3--||


  N.C.
   <
   /2______________________|
   Q     +Q    +Q    +E.  +S
|-----------------------------||
|-16----(16)--(16)--(16)-(16)-||
|-19----(19)--(19)--(19)-(19)-||
|-----------------------------||
|-----------------------------||
|-----------------------------||
|
|  <
|  /2______________________|
|  Q     +Q    +Q    +E.  +S
|-----------------------------||
|-16----(16)--(16)--(16)-(16)-||
|-19----(19)--(19)--(19)-(19)-||
|-----------------------------||
|-----------------------------||
|-----------------------------||


 "I'm here to break the.."
  D5
 3/4
  Gtrs I, II
  PM---------------------------------
  S S S E E S E E   S S S E E S E E
|-----------------|-----------------|
|-----------------|-----------------|
|-----------------|-----------------|
|-----------------|-----------------|
|-0-0-0-0-0-0-0-0-|-0-0-0-0-0-0-0-0-|
|-0-0-0-0-0-0-0-0-|-0-0-0-0-0-0-0-0-|


                                            N.C.
 7/8                 5/4
 -----------------------------------------|
  S S S E E E S E E   S S S E E S E E S S E  Q  a
|-------------------|-----------------------------||
|-------------------|-----------------------------||
|-------------------|-----------------------------||
|-------------------|-----------------------------||
|-0-0-0-0-0-0-0-0-0-|-0-0-0-0-0-0-0-0-0-0-0-------||
|-0-0-0-0-0-0-0-0-0-|-0-0-0-0-0-0-0-0-0-0-0-15s=0-||


 "I never wanted it to.."
  Db5
 4/4
  Gtr I
  PM------------------------|
  S S E H       E S S   S S E H.
|---------------------|--------------------|
|---------------------|--------------------|
|---------------------|--------------------|
|---------------------|--------------------|
|-0-0-0-----------0-0-|-0-0-0--------------|
|-1-1-1-----------1-1-|-1-1-1--------------|
|
| Gtr II
| PM----------------------------------------
| E   E E E E E E E     E   E E  E E E E E
|---------------------|--------------------|
|---------------------|--------------------|
|---------------------|--------------------|
|---------------------|--------------------|
|-0---0-0-0-0-0-0-0---|-0---0-0--0-0-0-0-0-|
|-1---1-1-1-1-1-1-1---|-1---1-1--1-1-1-1-1-|


                                         N.C.
  PM|           PM--------|        PM--|
  E E H       E S S   S S E Q.     S S E  E a
|-------------------|-------------------------|
|-------------------|-------------------------|
|-------------------|-------------------------|
|-------------------|-------------------------|
|-0-0-----------0-0-|-0-0-0--------0-0-0------|
|-1-1-----------1-1-|-1-1-1--------1-1-1-15s0-|
|
|--------------------------------------|
| E E E E E E E E     E   E E  E E S S E  E a
|-------------------|-------------------------|
|-------------------|-------------------------|
|-------------------|-------------------------|
|-------------------|-------------------------|
|-0-0-0-0-0-0-0-0---|-0---0-0--0-0-0-0-0------|
|-1-1-1-1-1-1-1-1---|-1---1-1--1-1-1-1-1-15s0-|


  Bb/D
  PM-----------------------------------------
  S E. S E. S E. S E.   S E. S E. S E. S E.
|---------------------|---------------------|
|---------------------|---------------------|
|---------------------|---------------------|
|---------------------|---------------------|
|-0-0--0-0--0-0--0-0--|-0-0--0-0--0-0--0-0--|
|-0-0--0-0--0-0--0-0--|-0-0--0-0--0-0--0-0--|
|
| PM-----------------------------------------
| S E. S E. S E. S E.   S E. S E. S E. S E.
|---------------------|---------------------|
|---------------------|---------------------|
|---------------------|---------------------|
|---------------------|---------------------|
|-1-1--1-1--1-1--1-1--|-1-1--1-1--1-1--1-1--|
|-0-0--0-0--0-0--0-0--|-0-0--0-0--0-0--0-0--|


                                  N.C.
                                    <
 ------------------------------|    ~~~~~~~~      ~~~~~~
  S E. S E. S E. S E.   S E. S E.   E      +E    +Q
|---------------------|-----------[17]b18r(17)-([17])---|
|---------------------|---------------------------------|
|---------------------|---------------------------------|
|---------------------|---------------------------------|
|-0-0--0-0--0-0--0-0--|-0-0--0-0------------------------|
|-0-0--0-0--0-0--0-0--|-0-0--0-0------------------------|
|
|                                   <
|------------------------------|    ~~~~~~~~      ~~~~~~
| S E. S E. S E. S E.   S E. S E.   E      +E    +Q
|---------------------|---------------------------------|
|---------------------|---------------------------------|
|---------------------|-----------[14]b15r(14)-([14])---|
|---------------------|---------------------------------|
|-1-1--1-1--1-1--1-1--|-1-1--1-1------------------------|
|-0-0--0-0--0-0--0-0--|-0-0--0-0------------------------|


  Db5
  PM------------------------|
  S S E H       E S S   S S E H.
|---------------------|--------------------|
|---------------------|--------------------|
|---------------------|--------------------|
|---------------------|--------------------|
|-0-0-0-----------0-0-|-0-0-0--------------|
|-1-1-1-----------1-1-|-1-1-1--------------|
|
| PM----------------------------------------
| S S E E E E E E E     E   E E  E E E E E
|---------------------|--------------------|
|---------------------|--------------------|
|---------------------|--------------------|
|---------------------|--------------------|
|-0-0-0-0-0-0-0-0-0---|-0---0-0--0-0-0-0-0-|
|-1-1-1-1-1-1-1-1-1---|-1---1-1--1-1-1-1-1-|


  PM------------------------------------|
  S S E E E E E E S S   S S E E E E E E E
|---------------------|-------------------||
|---------------------|-------------------||
|---------------------|-------------------||
|---------------------|-------------------||
|-0-0-0-0-0-0-0-0-0-0-|-0-0-0-0-0-0-0-0-0-||
|-1-1-1-1-1-1-1-1-1-1-|-1-1-1-1-1-1-1-1-1-||
|
|---------------------------------------|
| S S E E E E E E S S   S S E E E E E E E
|---------------------|-------------------||
|---------------------|-------------------||
|---------------------|-------------------||
|---------------------|-------------------||
|-0-0-0-0-0-0-0-0-0-0-|-0-0-0-0-0-0-0-0-0-||
|-1-1-1-1-1-1-1-1-1-1-|-1-1-1-1-1-1-1-1-1-||


 "..of my righteousness."
  D5
   TP                           TP                  TP
   W                           +H.                  Q
|---------------------------|-----------------------------|
|---------------------------|-----------------------------|
|-14------------------------|-(14)-----------------17-----|
|--x------------------------|--(x)------------------x-----|
|-12------------------------|-(12)-----------------15-----|
|---------------------------|-----------------------------|
|
|  PM----------|    PM-------------------------------------
|  S S S E E S S E. S S S S    +S  E S E E S S S E    E S
|---------------------------|-----------------------------|
|---------------------------|-----------------------------|
|---------------------------|-----------------------------|
|---------------------------|-----------------------------|
|--0-0-0-0-0-0-0----0-0-0-0-|--(0)-0-0-0-0-0-0-0-0----0-0-|
|--0-0-0-0-0-0-0----0-0-0-0-|--(0)-0-0-0-0-0-0-0-0----0-0-|


   TP                       TP                TP
   W                       +H.                Q
|-----------------------|----------------------------|
|-----------------------|----------------------------|
|-15--------------------|-(15)---------------17------|
|--x--------------------|--(x)----------------x------|
|-13--------------------|-(13)---------------15------|
|-----------------------|----------------------------|
|
|-|         PM------------|          PM---------|
| +S  Q..   S S S E E S     S  Q..   S S S S  E E
|-----------------------|----------------------------|
|-----------------------|----------------------------|
|-----------------------|----------------------------|
|-----------------------|----------------------------|
|-(0)-------0-0-0-0-0-0-|---0--------0-0-0-0----0----|
|-(0)-------0-0-0-0-0-0-|---0--------0-0-0-0----0----|


   TP                      TP                  TP
   W                      +H.                  Q
|----------------------|--------------------------|
|----------------------|--------------------------|
|-14-------------------|-(14)-----------------17--|
|--x-------------------|--(x)------------------x--|
|-12-------------------|-(12)-----------------15--|
|----------------------|--------------------------|
|
|  PM----------|           PM-----------|
|  S S S E E S S Q..       S  S S E E S S Q..
|----------------------|--------------------------|
|----------------------|--------------------------|
|----------------------|--------------------------|
|----------------------|--------------------------|
|--0-0-0-0-0-0-0-------|---0--0-0-0-0-0-0---------|
|--0-0-0-0-0-0-0-------|---0--0-0-0-0-0-0---------|


   TP                          TP         TP       TP   TP   TP
   W                          +H         +E       +E   +E   +E
|--------------------------|-----------------------------------------||
|--------------------------|-----------------------------------------||
|-15-----------------------|-(15)-------(15)b16==(15)-(15)-(15)r-----||
|--x-----------------------|--(x)--------(x)------(x)--(x)--(x)------||
|-13-----------------------|-(13)-------(13)b14==(13)-(13)-(13)r-----||
|--------------------------|-----------------------------------------||
|
|  PM------------------------|
|  S S S S E E S S S E E S     S  H..                            S
|--------------------------|-----------------------------------------||
|--------------------------|-----------------------------------------||
|--------------------------|-----------------------------------------||
|--------------------------|-----------------------------------------||
|--0-0-0-0---0-0-0-0-0-0-0-|---0-------------------------------------||
|--0-0-0-0---0-0-0-0-0-0-0-|---0-------------------------------------||


   "...watch you fail."
    D5                                    N.C.
    Gtrs I, II
      PM--------------------------------|
    S E S S E S S E S S E S   S E S S E S S S S S S S S S
||--------------------------|------------------------------||
||o-------------------------|-----------------------------o||
||--------------------------|------------------------------||
||--------------------------|------------------------------||
||o-0-0-0-0-0-0-0-0-0-0-0-0-|-0-0-0-0-0-0-----------------o||
||--0-0-0-0-0-0-0-0-0-0-0-0-|-0-0-0-0-0-0-1p0-1h2-1p0-1h3--||


  D5                N.C.      D5          N.C.
  PM--------------|           PM--------|
  S E S S E S S E S S S S S   S E S S E S S S S S S S S S
|---------------------------|-----------------------------|
|---------------------------|-----------------------------|
|---------------------------|-----------------------------|
|---------------------------|-----------------------------|
|-0-0-0-0-0-0-0-0-0---------|-0-0-0-0-0-0-----------------|
|-0-0-0-0-0-0-0-0-0-1p0-1-1-|-0-0-0-0-0-0-1p0-1-1-1p0-1-1-|


  D5                                      N.C.
  PM------------------------------------|
  S E S S E S S E S S S S S   S E S S E S S S S S S S S S
|---------------------------|-----------------------------|
|---------------------------|-----------------------------|
|---------------------------|-----------------------------|
|---------------------------|-----------------------------|
|-0-0-0-0-0-0-0-0-0-0-0-0-0-|-0-0-0-0-0-0-----------------|
|-0-0-0-0-0-0-0-0-0-0-0-0-0-|-0-0-0-0-0-0-1p0-1-1-1p0-1-1-|

  Gtrs I, II (w/ flanger)
  S E E E E E S E E   S E E E E E S E E
|-------------------|-------------------||
|-------------------|-------------------||
|-------------------|-------------------||
|-------------------|-------------------||
|-------------------|-------------------||
|-0-0-0-0-0-0-0-0-0-|-0-0-0-0-0-0-0-0-0-||


   "I draw my line in the.."
    D5              N.C.
  Gtrs I, II (w/ flanger)
    PM|         PM----|      PM-----------
    S S H.      E   S S H    S S S S S S
||----------------|----------------------|
||o---------------|----------------------|
||----------------|----------------------|
||----------------|----------------------|
||o-0-0---------0-|-0-0------0-0-0-0-0-0-|
||--0-0---------0-|-0-0------0-0-0-0-0-0-|


  D5              N.C.
 ---|         PM----|      PM------|
  S S H.      E   S S H    E S S S S
|---------------|----------------------||
|---------------|---------------------o||
|---------------|----------------------||
|---------------|----------------------||
|-0-0---------0-|-0-0------0-0-0-0-0--o||
|-0-0---------0-|-0-0------0-0-0-0-0---||


 Breakdown
  D5                                N.C.
  Gtrs I, II
  PM----------------------------------|        PM-----------
  S H.               +S   E         S S H      S S S S S S
|---------------------------------|------------------------|
|---------------------------------|------------------------|
|---------------------------------|------------------------|
|---------------------------------|------------------------|
|-0-0----------------(0)--0-------|-0-0--------0-0-0-0-0-0-|
|-0-0----------------(0)--0-------|-0-0--------0-0-0-0-0-0-|
|
| Gtr III
|                             PM
| H      +Q      +E      +S. +T     E   H..
|---------------------------------|------------------------|
|---------------------------------|------------------------|
|---------------------------------|------------------------|
|---------------------------------|------------------------|
|-5------(5)b6===(5)-----(5)-(5)r-|-6----------------------|
|---------------------------------|------------------------|


  D5                                N.C.
 -------------------------------------|        PM--------|
  S H.               +S   E         S S H      S S S S S S
|---------------------------------|---------------------------|
|---------------------------------|---------------------------|
|---------------------------------|---------------------------|
|---------------------------------|---------------------------|
|-0-0----------------(0)--0-------|-0-0--------0-0-0-0-0-0----|
|-0-0----------------(0)--0-------|-0-0--------0-0-0-0-0-0----|
|
|                             PM
| H      +Q      +E      +S. +T     E   H..
|---------------------------------|---------------------------|
|---------------------------------|---------------------------|
|---------------------------------|---------------------------|
|---------------------------------|---------------------------|
|-5------(5)b6===(5)-----(5)-(5)r-|-6-------------------------|
|---------------------------------|---------------------------|


  PM----------------------------------|        PM-----------
  S H.               +S   E         S S H      S S S S S S
|---------------------------------|------------------------|
|---------------------------------|------------------------|
|---------------------------------|------------------------|
|---------------------------------|------------------------|
|-0-0----------------(0)--0-------|-0-0--------0-0-0-0-0-0-|
|-0-0----------------(0)--0-------|-0-0--------0-0-0-0-0-0-|
|
|                             PM
| H      +Q      +E      +S. +T     E   H..
|---------------------------------|------------------------|
|---------------------------------|------------------------|
|---------------------------------|------------------------|
|---------------------------------|------------------------|
|-5------(5)b6===(5)-----(5)-(5)r-|-6----------------------|
|---------------------------------|------------------------|


 -------------------------------------|        PM--|
  S H.               +S   E         S S H      E E E
|---------------------------------|--------------------|
|---------------------------------|--------------------|
|---------------------------------|--------------------|
|---------------------------------|--------------------|
|-0-0----------------(0)--0-------|-0-0--------0-0-0---|
|-0-0----------------(0)--0-------|-0-0--------0-0-0---|
|
|                             PM
| H      +Q      +E      +S. +T     E   H..
|---------------------------------|--------------------|
|---------------------------------|--------------------|
|---------------------------------|--------------------|
|---------------------------------|--------------------|
|-5------(5)b6===(5)-----(5)-(5)r-|-6------------------|
|---------------------------------|--------------------|


                          H.=H         Slower Q=103             H=H
                                 Ebb5
                                              5/4
  Gtr I
                                 PM--------|      PM----------|
  W          +W           +H     S S E S S E   Q  S S E S S S S H
|----------|------------|--------------------|------------------------||
|----------|------------|--------------------|------------------------||
|----------|------------|--------------------|------------------------||
|-0--------|-(0)--------|-(0)----------------|------------------------||
|-0--------|-(0)--------|-(0)----0-0-0-0-0-0-|----0-0-0-0-0-0-0-------||
|-0--------|-(0)--------|-(0)----1-1-1-1-1-1-|----1-1-1-1-1-1-1-------||
|
| Gtr II
| W          +W           +H     H             W                   Q
|----------|------------|--------------------|------------------------||
|----------|------------|--------------------|------------------------||
|----------|------------|--------------------|------------------------||
|-0--------|-(0)--------|-(0)----------------|------------------------||
|-0--------|-(0)--------|-(0)----------------|------------------------||
|-0--------|-(0)--------|-(0)----------------|------------------------||


 Beatdown
  A Little Faster Q=108
  Ebb5
 4/4
  Gtrs I, II
                                 |
  PM-----|                           PM-----------------
  S E. S E. +Q        +E. +S    +E   E S S E S E. S E.
|-----------------------------|------------------------|
|-----------------------------|------------------------|
|-----------------------------|------------------------|
|-----------------------------|------------------------|
|-0-0--0-0--(0)-------(0)-(0)-|-(0)--0-0-0-0-0-0--0-0--|
|-1-1--1-1--(1)b2.5===(1)-(1)-|-(1)r-1-1-1-1-1-1--1-1--|


                                 |
 --------|                           PM-----------------|
  S E. S E. +Q        +E. +S    +E   S S S S S S S E. S E.
|-----------------------------|----------------------------|
|-----------------------------|----------------------------|
|-----------------------------|----------------------------|
|-----------------------------|----------------------------|
|-0-0--0-0--(0)-------(0)-(0)-|-(0)--0-0-0-0-0-0-0-0--0-0--|
|-1-1--1-1--(1)b2.5===(1)-(1)-|-(1)r-1-1-1-1-1-1-1-1--1-1--|


                                 |
  PM-----|                           PM---------------
  S E. S E. +Q        +E. +S    +E   E E E S E. S E.
|-----------------------------|----------------------|
|-----------------------------|----------------------|
|-----------------------------|----------------------|
|-----------------------------|----------------------|
|-0-0--0-0--(0)-------(0)-(0)-|-(0)--0-0-0-0-0--0-0--|
|-1-1--1-1--(1)b2.5===(1)-(1)-|-(1)r-1-1-1-1-1--1-1--|


                                                 N.C.
                                 |
 --------|                           PM--------|
  S E. S E. +Q        +E. +S    +E   S S S S S S E E E E
|-----------------------------|--------------------------||
|-----------------------------|--------------------------||
|-----------------------------|--------------------------||
|-----------------------------|--------------------------||
|-0-0--0-0--(0)-------(0)-(0)-|-(0)--0-0-0-0-0-0---------||
|-1-1--1-1--(1)b2.5===(1)-(1)-|-(1)r-1-1-1-1-1-1-2s3-4s5-||


 Outro
  Faster Q=118
  D5
  E Q  E Q.   E   Q.   E Q  E E   E Q  E Q.   E   Q.   E Q  E E
|---------------|---------------|---------------|----------------|
|---------------|---------------|---------------|----------------|
|---------------|---------------|---------------|----------------|
|-0----0------0-|------0----0---|-0----0------0-|------0----0----|
|-0----0------0-|------0----0---|-0----0------0-|------0----0----|
|-0----0------0-|------0----0---|-0----0------0-|------0----0----|


  E H..         W
|-------------|------*|
|-------------|------*|
|-------------|------*|
|-0-----------|------*|
|-0-----------|------*|
|-0-----------|------*|



Duration Legend
---------------
W - whole; H - half; Q - quarter; E - 8th; S - 16th; T - 32nd; X - 64th; a - acciaccatura
+ - note tied to previous; . - note dotted; .. - note double dotted
Uncapitalized letters represent notes that are staccato (1/2 duration)
Irregular groupings are notated above the duration line
Duration letters will always appear directly above the note/fret number it represents the
duration for.  Duration letters with no fret number below them represent rests.  Multi-
bar rests are notated in the form Wxn, where n is the number of bars to rest for.  Low
melody durations appear below the staff

Tablature Legend
----------------
 h   - hammer-on
 p   - pull-off
 b   - bend
 pb  - pre-bend
 r   - bend release (if no number after the r, then release immediately)
 /\  - slide into or out of (from/to "nowhere")
 s   - legato slide
 S   - shift slide
 - natural harmonic
[n]  - artificial harmonic
n(n) - tapped harmonic
 ~   - vibrato
 tr  - trill
 T   - tap
 TP  - trem. picking
 PM  - palm muting
\n/  - tremolo bar dip; n = amount to dip
 \n  - tremolo bar down
 n/  - tremolo bar up
/n\  - tremolo bar inverted dip
 =   - hold bend; also acts as connecting device for hammers/pulls
 <> - volume swell (louder/softer)
 x   - on rhythm slash represents muted slash
 o   - on rhythm slash represents single note slash

Misc Legend
-----------
 |  - bar
||  - double bar
||o - repeat start
o|| - repeat end
*|  - double bar (ending)
 :  - bar (freetime)
 $  - Segno
 &  - Coda
Tempo markers -  = BPM(8/16=s8/s16), where s8 = swing 8ths, s16 = swing 16ths


** Generated using Power Tab Editor by Brad Larsen: The Official Power Tab Web Site
Suggest correction
comments
print report bad tab
7 comments total. Showing first comments.
-1 reply
MrPisser 10 wrote on October 23 2009, 09:11 am

emmure sucks....i mean...look at the notes...omg

/irony on
How creative
/irony off

-1 reply
Zeraninator 72 wrote on November 26 2009, 06:32 pm

I agree. It's like Tenacious D's One Note Song, but it sucks...

-1 reply
=(Cody=) 148 wrote on February 5 2010, 09:46 pm

it's funny that you've labeled one part of the tab as "breakdown" when really that's all the song IS.
put the "breakdown" label at the top, and you'll be good.

sucks. XP

guest
You may want to rate the tab now too:
select rating
Please do not post tabs as comments. Select "correction" instead!