Oops, an error
Loading. Please wait.

When Keeping It Real Goes Wrong Tab

version 1
version 1

Whole song

Interactive

28,079 views 3 this week
11 commentsread comments
1 2 3 4 5
accurate
x 3
add to favorites
launch autoscroll
font size
0
reset
how to read this tab
guitar tuner
Autoscroll
slow
fast
+/-
esc
set tempo
stop
Help us to improve Ultimate-Guitar.com Take our survey!
×
Author
Difficulty
Tuning
intermediate
A# F A# D# G C
-------------------------------------------------------------------------------
                WHEN KEEPING IT REAL GOES WRONG - Emmure
-------------------------------------------------------------------------------
Tabbed by:Marauder319
Tuning:C
       G
       D#
       A#
       F
       A#

0:00

C-|------------------------------------------------------13-------------------|
G-|---16----------15-------------------------16----------17-------------------|
D#|---19----------18-------------------------19-------------------------------|
A#|--------14----------13--------------------------14-----------11------------|
F-|-00--00-----00---00--------------------00----00----00----00----------------|
A#|-00--00-----00---00----0h2h3p0-oh2h3p0-00----00----00----00-------3b-------|
   ..  ..     ..   ..                    ..    ..    ..    ..


0:07

C-|---------------------------------------------------------------------------|
G-|---------------------------------------------------------------------------|
D#|---------------------------------------------------------------------------|
A#|---------------------------------------------------------------------------|
F-|-00-00-00-00-----------------00-00-00-00-000-000---------------------------|
A#|-00-00-00-00-0h2h3p0-0h2h3p0-00-00-00-00-000-000---------------------------|
   .. .. .. ..                 .. .. .. .. ... ...

reapeat intro at 0:14

0:21                                               0:27           0:34

C-|-------------------------------------------|--------------|------0---------|
G-|-------------------------------------------|--------------|----4---4-------|
D#|-------------------------------------------|--------------|----------------|
A#|-------------------------------------------|--------------|----------------|
F-|-------------------------------------5-----|------2*------|----------------|
A#|-3-0(5x)-3-0(5x)-3-0(3x)-3-0(5x)-7-00-000--|--------------|----------------|
   . .     . .     . .     . .     . ......

0:35

C-|---------------------------------------------------------------------------|
G-|---------------------------------------------------------------------------|
D#|---------------------------------------------------------------------------|
A#|---------------------------------------------------0-----------------------|
F-|-0-0000-000-00-0000-000-00-0000-000-00-0000-00---4---4---------------------|
A#|-0-0000-000-00-0000-000-00-0000-000-00-0000-00-----------------------------|
   . .... ... .. .... ... .. .... ... .. .... ..

    ( Reapeat at 0:42 w/o ending)

0:48

C-|---------------------------------------------------------------------------|
G-|---------------------------------------------------------------------------|
D#|---------------------------------------------------------------------------|
A#|---------------------------------------------------------------------------|
F-|-444-4---222-2-----000-00-0-00-00-0-00-000-00-0-0---5h8--------------------|     (2x) 
   (2x)
A#|-444-4---222-2-----000-00-0-00-00-0-00-000-00-0-0--------------------------|
   ...     ...       ... .. . .. .. . .. ... .. . .
                      ( Reapeat this part at 0:59)

1:04

C-|---------------------------------------------------------------------------|
G-|---------------------------------------------------------------------------|
D#|---------------------------------------------------------------------------|
A#|------------0-0------------------------------------------------------------|
F-|-111-1------0-0--111-1-----------------------------------------------------|      (4x)           (4x)
A#|-111-1------1-1--111-1-----------------------------------------------------|
   ...        . .  ...

1:15

C-|---------------------------------------------------------------------------|
G-|---------------------------------------------------------------------------|
D#|---------------------------------------------------------------------------|
A#|-1111-1-1111-1111-1-1111-111-----------------------------------------------|
F-|-0000-0-0000-0000-0-0000-000-----------------------------------------------|
A#|-1111-1-1111-1111-1-1111-111-----------------------------------------------|
   .... . .... .... . .... ...
    ( Repeat this twice.)

1:25

C-|-10-1010-1010-10-1010------------------------------------------------------|
G-|-10-1010-1010-10-1010------------------------------------------------------|
D#|-13-1313-1313-13-1313------------------------------------------------------|
A#|---------------------------------------------------------------------------|
F-|-----------------------0000------------------------------------------------|
A#|-----------------------0000------------------------------------------------|
                         .... ( Repeat this 4x)


1:35

C-|---------------------------------------------------------------------------|
G-|----------------------------------------------0h9h12-----------------------|
D#|--------------0h7h10------------0h7h10-0h8h11------------------------------|
A#|-------0h6h9--------0h6h9-0h6h9--------------------------------------------|
F-|-0h5h8---------------------------------------------------------------------|
A#|---------------------------------------------------------------------------|

1:38

C-|---------------------------------------------------------------------------|
G-|---------------------------------------------------------------------------|
D#|---------------------------------------------------------------------------|
A#|---------------------------------------------------------------------------|
F-|-000-00-0-00-00-0-00-000-00-0-0--5h8---------------------------------------|
A#|-000-00-0-00-00-0-00-000-00-0-0--------------------------------------------|
   ... .. . .. .. . .. ... .. . .
    (Repeat this at 1:43


1:48

C-|-----------|---------------------------------------------------------------|
G-|-----------|--------------------------------7*-----------------------------|
D#|-----------|--------------------------------x------------------------------|
A#|-1--4--0---|--1-----------------------------x------------------------------|
F-|-1--4--0---|--0-----------------------------x------------------------------|
A#|-1--4--0---|--1-----------------------------x------------------------------|
         .      .                             .
                                              (Rake and repeat rythem)
2:07

C-|---1010-10-1010------------------------------------------------------------|
G-|---1010-10-1010------------------------------------------------------------|
D#|---1313-13-1313------------------------------------------------------------|
A#|---------------------------------------------------------------------------|
F-|-0-------------------------------------------------------------------------|
A#|-0-------------------------------------------------------------------------|   .

2:11

C-|----10---10---10-----------------------------------------------------------|
G-|----10---10---10--------------------16---16---16---------------------------|
D#|----13---13---13--------------------19---19---19---------------------------|
A#|---------------------------------------------------------------------------|
F-|-000--000--000-------------------------------------------------------------|
A#|-000--000--000---0h2h3p0-0h2h3p0-000--000--000---0h2h3p0-0h2h3p0-----------|
   ...  ...  ...                   ...  ...  ...

Repeat

2:25

C-|---------|-----------------------------------------------------------------|
G-|---------|-----------------------------------------------------------------|
D#|---------|-----------------------------------------------------------------|
A#|---------|-----------------------------------------------------------------|
F-|-0-00-0--|-0---0---0---0--0000000000000000---------------------------------|
A#|-0-00-0--|-0---0---0---0--1111111111111111---------------------------------|
   . .. .    .   .   .   .  ................
              (Repeat until end)


| /  slide up
| \  slide down
| h  hammer-on
| p  pull-off
| ~  vibrato
| *  harmonic
| x  Mute note
| .  Palm Mute
Suggest correction
Give kudos to tab author, rate the tab!
1 2 3 4 5
comments
print report bad tab
11 comments total. Showing first comments.
0 reply
Spl!nTeRgu!tAr 80 wrote on May 7 2008, 12:58 am

Emmure plays 7strings

low to high

A# F A# D# G# C F

-1 reply
Zao_89 864 wrote on July 1 2008, 11:32 am

Haha, no they dont. Besides, why would you tune up a 7-string.

+1 reply
codsterrrrr 462 wrote on July 29 2008, 02:16 pm

Actually one of the Emmure guitar players plays a 7 string Ibanez, the other plays a 6 string ESP. And by the way this tab is alittle wrong..

guest
You may want to rate the tab now too:
select rating
Wanna post a correction for this tab? Suggest correction