Oops, an error
Loading. Please wait.

Youll Never Be The Sun chords

337 views 1 this week
no commentswrite comment
1 2 3 4 5
x 7
add to favorites
×
Save as Personal and add changes to this tab that will be seen only by you. Learn more ›
×
You can save this tab as Personal to edit and correct it or add notes. All changes will be seen only by you. Learn more »
launch autoscroll
font size
0
reset
transpose
0
reset
display chords
guitar tuner
edit
Autoscroll
slow
fast
+/-
esc
set tempo
stop
Author
Strumming
There is no strumming pattern for this song yet. and get +5 IQ
SONG:   YOU'LL NEVER BE THE SUN
ARTIST: EMMYLOU HARRIS
        LINDA RONSTADT
        DOLLY PARTON
TAB BY: DON CZARSKI
EMAIL:  GUITARZAN7@HOTMAIL.COM



                   YOU'LL NEVER BE THE SUN
                       EMMYLOU HARRIS
                LINDA RONSTADT & DOLLY PARTON

INTRO:
D  A G  A 
D  A G  

CHORUS:
        A            D           
You'll never be the sun 
                G   A
Turning in the sky 
 A                    D                          
And you won't be the moon above us
               G   A
On a moonlit night 

 A                     D                                     
And you won't be the stars in heaven 
                        G    A
Although they burn so bright 
A                D            G                 
But even on the deepest ocean   
 A                D   A G 
You will be the light


VERSE:
     A               D                              
You may not always shine as you go 
                G   A
Barefoot over stone 
 A               D                             
You might be so long together 
                    G   A
Or you might walk alone 

 A                       D
And you won't find that love comes easy 
                         G    A
But that love is always right 
A                 D                 G   
So even when the dark clouds gather    
 A                D
You will be the light 


BREAK:
        A                                    
And if you lose 

The part inside 
      D           G       D
When love turns round on you 
             A          F#                
Leaving the past behind 
     F#           Bm          F#     Bm
Is knowing you'll do like you always do 
              E   Em
Holding you blind, 
 Em          A
Keeping you true 


INSTRUMENTAL:  - GUITAR 1 -

A  G D   D  G    A 
A  G D   D  G    A
A  D     D  G    A
A  G D   G A D   D A G


SOLO:          - GUITAR 2 -

E ------------------|------------------
B ---------8-8-7-7--|------------------
G ---6-7-9----------|-7-6-7-7/9-7------
D -7----------------|-------------9----
A ------------------|------------------
E ------------------|------------------

E ------------------------|------------------
B ------------8-8-7h8p7-7-|------------------
G -----6-7-9--------------|-7-6h7p6-7/9-7----
D -5-7--------------------|---------------9--
A ------------------------|------------------
E ------------------------|------------------

E -------------------|-----------------
B -------------------|-----------------
G ---12-12-12-11-11--|-7-6-7-7/9-7-----
D -9-----------------|--------------9--
A -------------------|-----------------
E -------------------|-----------------
                                      D A G
E ------------------|----------------
B ---------8-8-7-7--|----------------
G ---6-7-9----------|-7-6-7-7/9-6-7--
D -7----------------|----------------
A ------------------|----------------
E ------------------|----------------


CHORUS:
        A            D                 
You'll never be the sun 
                G   A   
Turning in the sky 
     A                D                      
And you won't be the moon above us 
               G    A
On a moonlit night 
 A                     D                                   
And you won't be the stars in heaven 
                        G    A
Although they burn so bright 
 A               D            G                 
But even on the deepest ocean   
 A               D   G   
You will be the light
 A               D   G   
You will be the light
 A               D    D
You will be the light
Suggest correction
Creating personal tab
Creating personal tab
You can edit any tab online and save it as your Personal.

You can edit, replace or remove any tab part or add personal notes – all changes will be seen only by you.

Personal tabs can be accessed anytime from any device, even offline.
Learn more »
comments
print report bad tab
guest
You may want to rate the tab now too:
select rating
Wanna post a correction for this tab? Suggest correction