Oops, an error
Loading. Please wait.

Beyond The Great Vast Forest Bass Tab

version 1
version 1

Whole song

Interactive

341 views 3 this week
no commentswrite comment
1 2 3 4 5
please rate
add to favorites
launch autoscroll
font size
0
reset
guitar tuner
Autoscroll
slow
fast
+/-
esc
set tempo
stop
Help us to improve Ultimate-Guitar.com Take our survey!
×
Easy song, Enjoy.


Verse

G|------------------------------------|--(A)-----|--(B)----------|
D|------------------------------------|----------|---------------|
A|------------------------2-2-2-2-2-2-|-5-2------|5-5-5--6-6--6--|
E|0-0-0-0-0-0-1-1-1-1-1-1-------------|-----5-3--|---------------|

Pre-Chorus

G|-------------------|
D|-------------------|
A|-------------------|
E|3--3-2--4---1-0-1--|

Chorus

G|-----------------|-----------------|
D|------------1----|-----------------|
A|2-3-2-3-2-3---3--|------------1----|
E|-----------------|2-3-2-3-2-3---3--|

Pre-Verse

G|------------------------|------------------------|
D|------------------------|------------------------|
A|------------------------|2-3-2-0-2---2-3-2-------|
E|2-3-2-0-2---2-3-2-0-1---|------------------0-1---|

Outro

G|------------------------|--------------------------|--------------------|
D|------------------------|--------------------------|--------------------|
A|2-2-2-2-2-2-------------|--------------------------|--------------------|
E|------------1-1-1-1-1-1-|-2-2-2-2-2-2-1-1-1-1-1-1--|4-4-4-4-4-4-4-4-4-4-|
Suggest correction
Give kudos to tab author, rate the tab!
1 2 3 4 5
comments
print report bad tab
guest
You may want to rate the tab now too:
select rating
Please do not post tabs as comments. Select "correction" instead!