Oops, an error
Loading. Please wait.

Decrystallizing Reason Tab

version 2
version 2

Whole song

Interactive

382 views 1 this week
1 commentread comment
1 2 3 4 5
3 more votes to show rating
add to favorites
launch autoscroll
font size
0
reset
how to read this tab
guitar tuner
Autoscroll
slow
fast
+/-
esc
set tempo
stop
Help us to improve Ultimate-Guitar.com Take our survey!
×
Author
-------------------------------------------------------------------------------
                     Decrystallizing Reason by Emperor

                       from the album IX Equilibrium
-------------------------------------------------------------------------------
Tabbed by Jørn André Størdal
Email: jornandrestordal@hotmail.com


Allright, this is one of my favourite songs by Emperor, so that's why i decided to tab it!
And btw. Please be kind, this is my first tab. :)


I'm a little bit insecure on figure 5 and 6. I'm not sure if i got them right, because
was so fucking confusing. :P Anyway, here's the tab :D


Tuning: E standard

Figure 1: 4x

e|---------------------------------------------------------------------------|
B|---------------------------------------------------------------------------|
G|---------------------------------------------------------------------------|
D|--6-3-2----7-7/9-9----9/10-10-10\9-9---------------------------------------|
A|--6-3-2----5-5/7-7----7/8--8--8-\7-7---------------------------------------|
E|--4-1-0--------------------------------------------------------------------|


Figure 2: x2

e|---------------------------------------------------------------------------|
B|---------------------------------------------------------------------------|
G|---------------------------------------------------------------------------|
D|--6-3-2----------7-7/9-9--------9/10-10-10---10/12-12----------------------|
A|--4-3-2----------5-5/7-77777777-7/8--8--8888-8-/10-10101010----------------|
E|--4-1-0-00000000-----------------------------------------------------------|


Figure 3: x2

e|---------------------------------------------------------------------------|
B|---------------------------------------------------------------------------|
G|---------------------------------------------------------------------------|
D|-6-3-2------------------4/-------------------10---10-------------------4/--|
A|-4-3-2------------------2/--------------------8----8-------------------2/--|
E|-4-1-0-0000000000000000-----0000000000000000----0-----0000000000000000-----|
         ................     ................    .     ................
e|---------------------------------------------------------------------------|
B|---------------------------------------------------------------------------|
G|---------------------------------------------------------------------------|
D|-------------------7/9-9-9/10-10-------------------------------------------|
A|-------------------5/7-7-7/8--8--------------------------------------------|
E|--0000000000000000---------------------------------------------------------|
    ................

Figure 4: x2

e|-----------------------------------------------|
B|-----------------------------------------------|
G|-----------------------------------------------|
D|--------9-------10-------9------8------8-------|
A|--------7--------8-------7------6------6-------|
E|--0-000---0-000----0-000---0000---0000---------|
    . ...   . ...    . ...   ....   ....
e|-----------------------------------------------|
B|-----------------------------------------------|
G|-----------------------------------------------|
D|--------9---9-------10--------9------8------8--|
A|--------7---7--------8--------7------6------6--|
E|--0-000---0---0-000-----0-000---0000---0000----|
    . ...   .   . ...     . ...   ....   ....

Then play figure 3 and 4 one more time... ( Fig. 3 two times, then fig. 4 two times.)


Figure 5: 1x

e|--------------------------------------------------------------------------------|
B|--------------------------------------------------------------------------------|
G|--------------------------------------------------------------------------------|
D|--------------------------------------------------------------------------5555--|
A|------888877777777----88881010101010101010----8888777777777777----44447777------|
E|--0000------------0000--------------------0000----------------6666--------------|


Figure 6:

e|-----------------------------------------------------------------------------|
B|-----------------------------------------------------------------------------|
G|-----------------------------------------------------------------------------|
D|----------------------------------888877774444-------------------------------|
A|------8888777777774444777710101010------------6666333355557777777788888888---|
E|--0000-----------------------------------------------------------------------|

e|-----------------------------------------------------------------------------|
B|-----------------------------------------------------------------------------|
G|-----------------------------------------------------------------------------|
D|6666----6666--------33335555------------------------------------6666----6666-|
A|----8888--------------------------------555555557777777788888888----8888-----|
E|------------33336666--------666655558888-------------------------------------|

e|-----------------------------------------------------------------------------|
B|-----------------------------------------------------------------------------|
G|-----------------------------------------------------------------------------|
D|--------33335555-------------------------------------------------------------|
A|----------------------------5555---------------------------------------------|
E|33336666--------666655558888-------------------------------------------------|

After this figure, play figure 5 once and then:


Figure 7:


e|-------------------------|
B|-------------------------|
G|--6-6-6-5h6p5h6p5h6p5h6--|  x2
D|--4-4-4------------------|
A|-------------------------|
E|-------------------------|

e|---------------------------------------------------------------------|
B|---------------------------------------------------------------------|
G|---------------------------------------------------------------------|
D|--4444444444444444666666666666666677777777777777779999999999999999---|
A|---------------------------------------------------------------------|
E|---------------------------------------------------------------------|

Play figure 7 four times.


Figure 8:

Btw. those "1111111111111111" are not F notes. Those are E flats. Which means they are
not one.

e|-----------------------------------------------------------------------------------------------------------|
B|-----------------------------------------------------------------------------------------------------------|

 x2
D|-----------------------------------------------------------------------------------------------------------|
A|--7777777799999999101010101010101099999999----------------77777777999999910101010101010109999999999999999--|
E|------------------------------------------1111111111111111-------------------------------------------------|

e|---------------------------------------------------------------------------------------------------------------------------|
B|---------------------------------------------------------------------------------------------------------------------------|
G|---------------------------------------------------------------------------------------------------------------------------|
D|---------------------------------------------------------------------------------------------------------------------------|
A|------------------777777779999999101010101010101099999999999999997777777799999999101010101010101099999999------------------|
E|1111111111111111------------------------------------------------------------------------------------------1111111111111111-|


Then play figure 7 twice.


Figure 9:

e|-------------------------------------|
B|-------------------------------------|
G|-------------------------------------| Play as many times as necessary.
D|--4----------4-4---------------------|
A|--4----------4-4--(keyboard part)----|
E|--2-22222222-2-2---------------------|
      ........

Then there is this similar riff that you play but figure out when to play it and stuff
it's not hard at all to figure out.

e|-------------------------------------|
B|-------------------------------------|
G|-------------------------------------| Play as many times as necessary.
D|--7----------7-7---------------------|
A|--7----------7-7--(keyboard part)----|
E|--5-55555555-5-5---------------------|
      ........

Figure 10:

e|---------------------------------------------------------------------|
B|---------------------------------------------------------------------|
G|---------------------------------------------------------------------|
D|---------------------------------------------------------------------|
A|--9~-----------5~-----------8~---------------------------------------|
E|------------------------------------------7~-------------------------|

Then you just continue to play the last two figures until fade out.

And that's it! :D Hope you enjoyed the tab as much as i did when tabbing it! :D

A rating would be nice too btw. :)

e-mail me for corrections if you find any. As said before, I think I messed up figure 5
6, but it's possible that it turned out alright anyway.


| /  slide up
| \  slide down
| h  hammer-on
| p  pull-off
| ~  vibrato
| +  harmonic
| x  Mute note
| .  Palm mute
===============================================================================
Suggest correction
Give kudos to tab author, rate the tab!
1 2 3 4 5
comments
print report bad tab
1 comment total.
0 reply
Mjod 40 Sep 05, 2007 06:24 AM

"Btw. those "1111111111111111" are not F notes. Those are E flats. Which means they are not one."

It was written wrong. I apologize! Here's the right one:

"Btw. those "1111111111111111" are not F notes. Those are E flats. Which means they are eleven, not one. Eleven, eleven, eleven..."

guest
You may want to rate the tab now too:
select rating
Wanna post a correction for this tab? Suggest correction