Oops, an error
Loading. Please wait.

Ensorcelled By Khaos Tab

version 1
version 1

Whole song

Interactive

1,257 views 6 this week
no commentswrite comment
1 2 3 4 5
please rate
add to favorites
launch autoscroll
font size
0
reset
how to read this tab
guitar tuner
Autoscroll
slow
fast
+/-
esc
set tempo
stop
Help us to improve Ultimate-Guitar.com Take our survey!
×
================================================================================
         Title : Ensorcelled by Khaos
        Artist : Emperor
         Album : Anthems to the Welkin at Dusk
Transcribed by : Demgoroth 
  This is track 4 from the complete "Anthems to the Welkin at Dusk"

================================================================================

Legend
------

 h  = hammer-on
 p  = pull-off
 b  = bend
 r  = bend release
 /  = slide up/down
<5> = natural harmonic
[5] = artifical harmonic
 ~  = vibrato
 tr = trill

I have figured out only the most audible guitar part... the ornaments 
were too tricky to figure out. 
   
 INTRO
   
E|--------------------------------------------------------------------|
B|--------------------------------------------------------------------|
G|--------------------------------------------------------------------|
D|---555555---------444---444---444555555---444---444---555-----------|
A|---------444---------------------------------------------444--------|
E|------------333222---222---222---------222---222---222------333-----|

Here comes the cool part : 

RIFF 1

     E5    E5+
E|--------------------------------------------------------------------
B|--------------------------------------------------------------------
G|--------------------------------------------------------------------
D|---999999101010101010---------------------999999101010101010--------
A|---777777-7-7-7-7-7-7-999101010999121212--777777-7-7-7-7-7-7--------
E|--------------------------------------------------------------------
                            RIFF 2              C5   D5
E|------------------------|-------------------------------------------
B|------------------------|-------------------------------------------
G|------------------------|--------------999--------------------------
D|----------------121212--|--777777101010---555555777777--------------
A|----999101010999--------|-----------------333333555555--------------
E|------------------------|-------------------------------------------

     Em7                              Gm
E|--------------------------------------------------------------------
B|--------------------------------------------------------------------
G|--------------------------------------------------------------------
D|---------------999121212121212999999------------888888--------------
A|---777777101010------------------------------555------101010101010--
E|------------------------------------333333666-----------------------

     D5/D5+/D5    C5/C6        B5                         G5\tab
E|--------------------------------------------------------------------
B|--------------------------------------------------------------------
G|--------------------------------------------------------------------
D|---777777888777-555555777777-999999999999-888888555444--5-----------
A|---555555555555-333333333333-999999999999---------------5-----------
E|-----------------------------777777777777---------------3-----------

                   THEN BACK TO RIFF 1 AND SO ON...
E|--------------|-----------------------------------------------------
B|--------------|-----------------------------------------------------
G|--------------|-----------------------------------------------------
D|---4-5-4-9-8--|-----------------------------------------------------
A|---4-5-4-9-8--|-----------------------------------------------------
E|---2-3-2-7-6--|-----------------------------------------------------

The lazy part                     let ring

E|------------------------------|-------------------------------------|
B|------------------------------|-----5-----------------5---6--666-66-|
G|------------------------------|---------4-----7-----------5--555-55-|
D|----2--2--2------2--2--2-3-3--|-2-----------58----2-------3--333-33-|
A|---2--2--2---5--2--2--2--3-3--|-------------------------------------|
E|--0--0--0--36--0--0--0---1-1--|-------------------------------------|

Now this is wild speculation :               Then back to the lazy part

E|--------------------------------------------------------------------|
B|--------------------------------------------------------------------|
G|--------------------------------------------------------------------|
D|---9-10---9-10---9-10---9-10---9-10----9-10----9-10-12-9-10---------|
A|-7-------------7-------------7------10------12----------------------|
E|--------7-------------7---------------------------------------------|

Tempo builds up again :

E|-----------------------------|----------|---------------------------
B|-----------------------------|----------|---------------------------
G|-----------------------------|----------|---------------------------
D|-7------3------7---------888-|--repeat--|---------------------------
A|-7------4------7-------------|----------|---------------------------
E|-5-5555-6------5-5555-666----|----------|---------------------------

Totally crazed out riff 

E|--------------------------------------------------------------------
B|--------------------------------------------------------------------
G|--------------------------------------------------------------------
D|-----7778887778881010881010111111----7778887778881010881010888------
A|--000-----------------------------000-------------------------------
E|--------------------------------------------------------------------


E|----------------------------|----------------------------------------
B|----------------------------|----------------------------------------
G|----------------------------|----------------------------------------
D|--222222000000--------------|----------------------------------------
A|--333333222222222222000000--|----------------------------------------
E|--------------333333222222--|----------------------------------------
Suggest correction
What's this?
You can suggest a correction to this tab. Community and Mods will review your correction and vote to approve or reject it.
comments
We did not receive enough feedback on this tab! Please rate:
print report bad tab
1 2 3 4 5
guest
You may want to rate the tab now too:
select rating
Please do not post tabs as comments. Select "correction" instead!