Oops, an error
Loading. Please wait.

I Am The Black Wizards Tab

version 3
version 3

Whole song

Interactive

by Emperor
15,629 views 54 this week
1 commentread comment
1 2 3 4 5
x 7
add to favorites
launch autoscroll
font size
0
reset
how to read this tab
guitar tuner
Autoscroll
slow
fast
+/-
esc
set tempo
stop
Author
Tuning
E A D G B E
Tuning E A D G B E 

[Riff 1] 
(0:00) 
(Play twice)                             
e|-----------------------------------------------------|
B|-----------------------------------------------------| 
G|-----------------------------------------------------|
D|-----------------------------------------------------| (gtr 2)
A|------------7"----------------------3"---------------|
E|-0"---------0"---------1"-----------1"---------------|

[Riff 1] 
(0:07)
e|------------------------------------------------|
B|------------------------------------------------| 
G|------------------------------------------------| 
D|---2"---------3"----------------3"--------------|  
A|---2"---------3"-----3"-------------------------|
E|---0"---------1"--------------------------------|

[Riff 2] 
(0:13) 
(Play 4 times)
e|------------------------------------------------------------------------------------|
B|------------------------------------------------------------------------------------|
G|----------9"----------------------------------------10"--9"-7"---9"-----------------|
D|---------------9"--------------------7"----9"-----------------------10"-9" ---10"---|
A|---7"---------------10"--9"---10"---------------8"----------------------------------|
E|------------------------------------------------------------------------------------|
                             
e|------------------------------------------------|
B|------------------------------------------------| 
G|------------------------------------------------| 
D|-------------------------------------3"---------| (gtr 2)
A|--------------3"----------------3"--------------|
E|--0"---1"-----1"----0"---1"-----1"--------------|
    
[Riff 3] 
(0:36)
e|-----3^4^6^--6^------6 ^----|--------------|
B|-----4^3^4^----4^-----------|--------------|
G|-----5^5^5^-------5^--------|--------------|
D|-----5^5^3^-----------------|--------------|  
A|-----3^3^3^-----------------|--------------|
E|----------------------------|-4"---3"------| 
                                                   
 (Let ring through out)
e|---------------------------------|
B|---------------------------------| 
G|---------5-----------------------| 
D|---------5-----------------------| (gtr 2)
A|---------3-----------------------|
E|---------------------------------|
                                                                     
[Riff 4] 
(0:42) 
(Play 4 times)                                        (Fig. 1)
e|----------------------------------------------------|--------------|
B|----------------------------------------------------|--------------| 
G|----------------------------------------------------|--------------| 
D|-----------------------3-----------------4----------|-6--------7---| 
A|--2"-----1"-----2"------------------3---------------|-------6------|
E|-----------------------------2----------------------|----5---------|

[Riff 2] 
(1:05) 
(Play 3 times)
e|------------------------------------------------------------------------------------|
B|------------------------------------------------------------------------------------|
G|----------9"----------------------------------------10"--9"-7"---9"-----------------|
D|---------------9"--------------------7"----9"-----------------------10"-9" ---10"---|
A|---7"---------------10"--9"---10"---------------8"----------------------------------|
E|------------------------------------------------------------------------------------|
                             
e|------------------------------------------------|
B|------------------------------------------------| 
G|------------------------------------------------| 
D|-------------------------------------3"---------| (gtr 2)
A|--------------3"----------------3"--------------|
E|--0"---1"-----1"----0"---1"-----1"--------------|
1:05

[Riff 4] 
(1:28) 
(Play 4 times)                                        (Fig. 1)
e|----------------------------------------------------|--------------|
B|----------------------------------------------------|--------------| 
G|----------------------------------------------------|--------------| 
D|-----------------------3-----------------4----------|-6--------7---| 
A|--2"-----1"-----2"------------------3---------------|-------6------|
E|-----------------------------2----------------------|----5---------|

(Fig. 2) 
(1:50)                                        [Riff 5]
e|--------------------------------------------|-------------------------|
B|--------------------------------------------|-------------------------|
G|--------------------------------------------|-------------------------|
D|--7------------3\6/4\5----------------------|--8"----7"-----6"-----7"-|
A|--5----8-------1\4/2\7----------------------|--5"----5"-----5"-----5"-|
E|-------6------------------------------------|-------------------------|

[Riff 5B]
(2:08) 
(Play 4 Times)
e|---------------------------------------|
B|---------------------------------------| 
G|---------------------------------------|
D|---5-5-5-5--3-3-3-3--3\6/4\-7-7-7-7----| 
A|---3-3-3-3--1-1-1-1--1\4/2\-5-5-5-5----|
E|---------------------------------------|

[Riff 6] 
(2:45) 
(Play 3 times)
e|------------------------------------------------|
B|------------------------------------------------| 
G|------------------------------------------------| 
D|-1---0---0---3---0----0---5--0----0----7--------| 
A|------------------------------------------------|
E|------------------------------------------------|

(Fig. 3)
e|---------------------------------|
B|---------------------------------|
G|---------------------------------|
D|---------------------------------|
A|-5--5--4--4--6--6----------------|
E|-3 -3--2--2--4--4----------------|

(Fig. 4)
e|---------------------------------|
B|---------------------------------| 
G|---------------------------------| 
D|---------------------------------|  
A|-5--5----8--8--3---3---6---6-----|
E|-3--3----6--6--1---1---4---4-----|

[Riff 7] 
(3:05) 
(Play 3 times)                        (Fig. 5)
e|------------------------------------|------------------------|
B|------------------------------------|------------------------| 
G|------------------------------------|------------------------| 
D|------------------------------------|------------------------| 
A|—1---0--0--3----0--0--5--0--0--7----|--9--9--9--9--8--8------|
E|------------------------------------|--7--7--7--7--6--6------|

[Fig. 6]
e|-----------------------------------|
B|-----------------------------------| 
G|-----------------------------------| 
D|-----------------------------------|  
A|--9-9--12---7--7----10-------------|
E|--7-7--10---5--5----8--------------|

[Riff 5B]
(3:23) 
(Play 4 Times)
e|---------------------------------------|
B|---------------------------------------| 
G|---------------------------------------|
D|---5-5-5-5--3-3-3-3--3\6/4\-7-7-7-7----| 
A|---3-3-3-3--1-1-1-1--1\4/2\-5-5-5-5----|
E|---------------------------------------| 

[Riff 8] 
(4:02) 
(Play 10 times)
e|------------------------------------------------------------------------|
B|------------------------------------------------------------------------| 
G|------------------------------------------------------------------------| 
D|---------3----2---------------------------------------------------------|  
A|---2-----1----0-----3/6\3----2----3-----2----3--------------------------|
E|---0----------------1/4\1----0----1-----0----1--------------------------|

[Riff 9] 
(4:11 - Lead) 
(Play 5 times)
e|------------------------------------------------------------------------|
B|-----------------------------------------------------------------5^-----| 
G|-9--10-9---7---------7--10-9-10-9--10------7--6------5------------------| 
D|------------------6--------------------5----------7------6-5-6-5--------|  
A|------------------------------------------------------------------------|
E|------------------------------------------------------------------------|

[Riff 2] 
(4:35) 
(Play 10 times)
(w/o Tremolo picking)
e|------------------------------------------------------------------------------------|
B|------------------------------------------------------------------------------------|
G|----------9"----------------------------------------10"--9"-7"---9"-----------------|
D|---------------9"--------------------7"----9"-----------------------10"-9" ---10"---|
A|---7"---------------10"--9"---10"---------------8"----------------------------------|
E|------------------------------------------------------------------------------------|
                             
e|------------------------------------------------|
B|------------------------------------------------| 
G|------------------------------------------------| 
D|-------------------------------------3"---------| (gtr 2)
A|--------------3"----------------3"--------------|
E|--0"---1"-----1"----0"---1"-----1"--------------|  

[Outro]
e|-----------------------------|
B|-----------------------------| 
G|-----------------------------| 
D|-----------------------------| (gtr 2)
A|-2----3----------------------|
E|-0----1----------------------|


************************************

| /  Slide up
| \  Slide down

************************************
Suggest correction
comments
print report bad tab
1 comment total.
+1 reply
calumcoolio 30 Apr 29, 2008 11:20 AM

i think riff 3 is played as an arpeggios as opposed to chords
and the note at the end of riff 9 is a pinch harmonic
but apart from that. a perfect tab (:

guest
You may want to rate the tab now too:
select rating
Wanna post a correction for this tab? Suggest correction