Oops, an error
Loading. Please wait.

I Am The Black Wizards Tab

version 3
version 3

Whole song

Interactive

15,005 views 12 this week
1 commentread comment
1 2 3 4 5
x 7
add to favorites
launch autoscroll
font size
0
reset
how to read this tab
guitar tuner
Autoscroll
slow
fast
+/-
esc
set tempo
stop
Help us to improve Ultimate-Guitar.com Take our survey!
×
#----------------------------------PLEASE NOTE------------------------------------------#
#This file is the author's own work and represents their interpretation of the #
#song. You may only use this file for private study, scholarship, or research#
#---------------------------------------------------------------------------------------#


Band   Emperor
Album: In the Nightside Eclipse
Song: I Am The Black Wizards
    
Copyright (c)  Candlelight Records
Version 2.0 - 16/2/2008
    
Transcribed By: Elathen
Email:         myfreezingmoon@yahoo.com


.  - palm mute           /  - slide up to
\  - slide down to       ~  - vibrato

h  - hammer on           b  - Bend
p  - pull off            Suffixes for bend
t  - tap                 f  - full bend    h - half bend
ph - pinched harmonic    q  - quarter bend t - tap bend
*  - see comment         ^  - Hold bend    r release bend
x  - Stuccatto           ~  - vibrato bend
,  - slight palm mute    () - ghost note, sustained note
"  - tremolo note        <> - Trill

Tuning E A D G B E 

Riff1: 0:00 (Play twice)                             
|-----------------------------------------------------|
|-----------------------------------------------------| 
|-----------------------------------------------------|
|-----------------------------------------------------| gtr 2
|------------7"----------------------3"---------------|
|-0"---------0"---------1"-----------1"---------------|

Riff1: 0:07
|------------------------------------------------|
|------------------------------------------------| 
|------------------------------------------------| 
|---2"---------3"----------------3"--------------|  
|---2"---------3"-----3"-------------------------|
|---0"---------1"--------------------------------|


Riff2: 0:13 (Play 4 times)
|------------------------------------------------------------------------------------|
|------------------------------------------------------------------------------------|
|----------9"----------------------------------------10"--9"-7"---9"-----------------|
|---------------9"--------------------7"----9"-----------------------10"-9" ---10"---|
|---7"---------------10"--9"---10"---------------8"----------------------------------|
|------------------------------------------------------------------------------------|
                             
|------------------------------------------------|
|------------------------------------------------| 
|------------------------------------------------| 
|-------------------------------------3"---------| gtr 2  
|--------------3"----------------3"--------------|
|--0"---1"-----1"----0"---1"-----1"--------------|
    
                                                            
Riff3: 0:36 (Play once)
|-----3^4^6^--6^------6 ^----|--------------|
|-----4^3^4^----4^-----------|--------------|
|-----5^5^5^-------5^--------|--------------|
|-----5^5^3^-----------------|--------------|  
|-----3^3^3^-----------------|--------------|
|----------------------------|-4"---3"------| 
                                                   
(Let ring through out)
|---------------------------------|
|---------------------------------| 
|---------5-----------------------| 
|---------5-----------------------| gtr 2 
|---------3-----------------------|
|---------------------------------|
                                                                     
Riff4: 0:42 (Play 4 times)                            Fig. 1:
|----------------------------------------------------|--------------|
|----------------------------------------------------|--------------| 
|----------------------------------------------------|--------------| 
|-----------------------3-----------------4----------|-6--------7---| 
|--2"-----1"-----2"------------------3---------------|-------6------|
|-----------------------------2----------------------|----5---------|

Play Riff 2 x 3: 1:05

Play Riff 4 x 4: 1:28

Fig. 2: 1:50                                  Riff5
|--------------------------------------------|-------------------------|
|--------------------------------------------|-------------------------|
|--------------------------------------------|-------------------------|
|--7------------3\6/4\5----------------------|--8"----7"-----6"-----7"-|
|--5----8-------1\4/2\7----------------------|--5"----5"-----5"-----5"-|
|-------6------------------------------------|-------------------------|

Riff5 B: 2:08 (Play 4 Times)
|---------------------------------------|
|---------------------------------------| 
|---------------------------------------|
|---5-5-5-5--3-3-3-3--3\6/4\-7-7-7-7----| 
|---3-3-3-3--1-1-1-1--1\4/2\-5-5-5-5----|
|---------------------------------------|

                                      
Riff6: 2:45 (Play 3 times)
|------------------------------------------------|
|------------------------------------------------| 
|------------------------------------------------| 
|-1---0---0---3---0----0---5--0----0----7--------| 
|------------------------------------------------|
|------------------------------------------------|

Fig. 3:
|---------------------------------|
|---------------------------------|
|---------------------------------|
|---------------------------------|
|-5--5--4--4--6--6----------------|
|-3 -3--2--2--4--4----------------|

Fig. 4:
|---------------------------------|
|---------------------------------| 
|---------------------------------| 
|---------------------------------|  
|-5--5----8--8--3---3---6---6-----|
|-3--3----6--6--1---1---4---4-----|


Riff7: 3:05 (Play 3 times)            Fig. 5:
|------------------------------------|------------------------|
|------------------------------------|------------------------| 
|------------------------------------|------------------------| 
|------------------------------------|------------------------| 
|—1---0--0--3----0--0--5--0--0--7----|--9--9--9--9--8--8------|
|------------------------------------|--7--7--7--7--6--6------|

Fig. 6:
|-----------------------------------|
|-----------------------------------| 
|-----------------------------------| 
|-----------------------------------|  
|--9-9--12---7--7----10-------------|
|--7-7--10---5--5----8--------------|

Play Riff 5/5b x 4 3:23

Riff8: 4:02 (Play 10 times)
|------------------------------------------------------------------------|
|------------------------------------------------------------------------| 
|------------------------------------------------------------------------| 
|---------3----2---------------------------------------------------------|  
|---2-----1----0-----3/6\3----2----3-----2----3--------------------------|
|---0----------------1/4\1----0----1-----0----1--------------------------|

Riff9: 4:11 - Lead (Play 5 times)
|------------------------------------------------------------------------|
|-----------------------------------------------------------------5^-----| 
|-9--10-9---7---------7--10-9-10-9--10------7--6------5------------------| 
|------------------6--------------------5----------7------6-5-6-5--------|  
|------------------------------------------------------------------------|
|------------------------------------------------------------------------|

Play riff 2 x 10 4:35 (w/o Tremolo picking) 

Under play this until the end.
|-----------------------------|
|-----------------------------| 
|-----------------------------| 
|-----------------------------| gtr 2 
|-2----3----------------------|
|-0----1----------------------|
Suggest correction
comments
print report bad tab
1 comment total.
+1 reply
calumcoolio 30 Apr 29, 2008 03:20 PM

i think riff 3 is played as an arpeggios as opposed to chords
and the note at the end of riff 9 is a pinch harmonic
but apart from that. a perfect tab (:

guest
You may want to rate the tab now too:
select rating
Wanna post a correction for this tab? Suggest correction