Oops, an error
Loading. Please wait.

Night Of The Graveless Souls Tab

version 2
version 2

Whole song

Interactive

800 views 1 this week
1 commentread comment
1 2 3 4 5
please rate
add to favorites
launch autoscroll
font size
0
reset
how to read this tab
guitar tuner
Autoscroll
slow
fast
+/-
esc
set tempo
stop
Help us to improve Ultimate-Guitar.com Take our survey!
×
Author
Difficulty
novice
Night Of The Graveless Souls
Emperor

Riff I
|----------------------------------|----------------------------------|
|----------------------------------|----------------------------------|
|----------------------------------|----------------------------------|
|----------------------------------|----------------------------------|
|--2-2-2-2-2-2-2-2-2-2-2-2-2-2-2-2-|--2-2-2-2-2-2-2-2-2-2-2-2-2-2-2-2-|
|--0-0-0-0-0-0-0-0-0-0-0-0-0-0-0-0-|--0-0-0-0-0-0-0-0-0-0-0-0-0-0-0-0-|
 
|----------------------------------|----------------------------------|
|----------------------------------|----------------------------------|
|----------------------------------|----------------------------------|
|----------------------------------|----------------------------------|
|--3-3-3-3-3-3-3-3-3-3-3-3-3-3-3-3-|--3-3-3-3-3-3-3-3-6-6-6-6-6-6-6-6-|
|--1-1-1-1-1-1-1-1-1-1-1-1-1-1-1-1-|--1-1-1-1-1-1-1-1-4-4-4-4-4-4-4-4-|
                                      
Riff II
|-------------------------|---------------------|
|-------------------------|---------------------|
|-------------------------|---------------------|
|--2----------------------|--7------------------|
|--2----------------------|--5--------6----5----|
|--0----------------------|-----------4----3----|


Riff III
|----------------------------|-----------------------------|
|----------------------------|-----------------------------|
|----------------------------|-----------------------------|
|----------------------------|-----------------------------|
|--4----4S--5--5S--8--8S--7--|--7S--4--4S--5--5S--4--4--4--|
|--2----2S--3--3S--6--6S--5--|--5S--2--2S--3--3S--2--2--2--|


Riff IV
|----------------------------------|
|----------------------------------|
|----------------------------------|
|----------------------------------|
|------------------9-9-9-9---------|
|--7-7-7-7-7-7-7-7---------8-8-8-8-| x2

|----------------------------------|
|----------------------------------|
|----------------------------------|
|----------------------------------|
|------------------8-8-8-8---------|
|--6-6-6-6-6-6-6-6---------7-7-7-7-| x2


Interlude I
|-------------------|-------------------|
|-------------------|-------------------|
|-------------------|-------------------|
|--4----------------|--L----------------|
|--2----------------|--L----------------|
|-------------------|-------------------|
Interlude II              
|------------------|------------------|-----------------|------------------|
|------------------|------------------|-----------------|------------------|
|------------------|------------------|-----------------|------------------|
|------------------|------------------|-----------------|------------------|
|--2---------------|--L---------------|--L--------------|--L---------------|
|--0---------------|--L---------------|--L--------------|--L---------------|

               
|-------------------|-------------------|-------------------|
|-------------------|-------------------|-------------------|
|-------------------|-------------------|-------------------|
|-------------------|-------------------|-------------------|
|--L----------------|--L----------------|--L----------------|
|--L----------------|--L----------------|--L----------------|

Structure
--------------
Riff I     x6
Riff II    x6
Riff III   x8
Riff IV    x8
Interlude I
Riff I     x6
Riff II    x6
Riff III   x8
Riff IV    x8
Interlude II

Tablature Legend
----------------
L - tied note
x - dead note
g - grace note
(n) - ghost note
> - accentuded note
NH - natural harmonic
AH - artificial harmonic
TH - tapped harmonic
SH - semi harmonic
PH - pitch harmonic
h - hammer on
p - pull off
b - bend
br - bendRelease
pb - preBend
pbr - preBendRelease
brb - bendReleaseBend
\n/ - tremolo bar dip
\n - tremolo bar dive
-/n - tremolo bar Release up
/n\ - tremolo bar inverted dip
/n - tremolo bar return
-\n - tremolo bar Release down
S - shift slide
s - legato slide
/ -  slide into from below or out of upwards
\ -  slide into from above or out of downwards
~ - vibrato
W - wide vibrato
tr - trill
TP - tremolo picking
T - tapping
S - slap
P - pop
< - fade in
^ - brush up
v - brush down

Suggest correction
Give kudos to tab author, rate the tab!
1 2 3 4 5
comments
print report bad tab
1 comment total.
0 reply
Angel Of Sin 144 wrote on July 31 2008, 03:24 am

Note; the structure is a little lengthened and the lead guitar at the end has been tabbed, I just have to edit this tab somehow.

guest
You may want to rate the tab now too:
select rating
Wanna post a correction for this tab? Suggest correction