Oops, an error
Loading. Please wait.

The Eruption Tab

version 1
version 1

Whole song

Interactive

1,732 views 3 this week
no commentswrite comment
1 2 3 4 5
please rate
add to favorites
launch autoscroll
font size
0
reset
how to read this tab
guitar tuner
Autoscroll
slow
fast
+/-
esc
set tempo
stop
Help us to improve Ultimate-Guitar.com Take our survey!
×
Contributor
Mikhailo 35,427
#----------------------------------PLEASE NOTE--------------------------------#
#This file is the author's own work and represents their interpretation of the#
#song. You may only use this file for private study, scholarship, or research.#
#-----------------------------------------------------------------------------#

Author/Artist: Emperor
Title: The Eruption
Album: Prometheus - The Discipline of Fire And Demise
Transcribed by: Frosgart
Email: rest@hippo.ru

--------------------------------------|---------------------------------------
--------------------------------------|---------------------------------------
--------------------------------------|---------------------------------------
-2--------9-10-7-9--------------------|-2---------------------9-10-7-9--------
-2--7-8-7----------8-7-8-7-5h7/3h5/2--|-2---------------7-8-7----------8------
-0------------------------------------|-0-------------------------------------
 Riff 1. Ishahn      * * * * * * * *    Samoth   Play this while Ishahn pl *  

--------------------------------------|---------------------------------------
--------------------10--9-7/10--------|---------------------------------------
-------------9-10-9-------------------|---------------------------------------
-------9-10---------------------------|-2-3-2-9-10-7-9-3-----------------7----
-7-8-7--------------------------------|-2-3-2-9-10-7-9-3-----------7-8-7------
--------------------------------------|-0-1-0-7-8--5-7-1----------------------
 Riff 2 Ishahn                          pm.............. Samoth               

--------------------------------------|---------------------------------------
-7/10--7/10-12-9h10p9\7---------------|---------------------------------------
--------------------------------------|---------------------------------------
--------------------------------------|-4\7-----4\7---------------------------
--------------------------------------|---------------------------------------
--------------------------------------|---------------------------------------
 Ishahn                                 Samoth. Listen to a time.             

---------------|------------------------------------|-------------------------
---------------|------------------------------------|-------------------------
---------------|------------------------------------|-------------------------
---------------|------------------------------------|-------------------------
---------------|------------------------7/------9/--|-------9-------9-------8-
-0-3-2-3-5-2-3-|-0-3-2-3-5-3-5-7--0h7p0---0h7p0-----|-7-777---7-777---7-777---
 Riff 3.        Ending. Both.                         2nd ending              

-------------------------------------|----------------------------------------
-------------------------------------|----------------------------------------
-------------------------------------|----------------------------------------
-----h-----h-h-----h-----------------|----------------------------------------
-----2-----2-3-----0-----------------|-----2-----2-3-----0--------------------
-000---000-----000---0-2-3-0-5-3-2-0-|-000---000-----000---0-2-3-0-5-3-2-0----
 Ishahn    Riff 4    **very fast****   Samoth   "Word" &"Wisdom he had heard  

------------------------------------------------------------------------------
------------------------------------------------------------------------------
-------h--------------h----------------h--------------------------------------
-------7--------------7-5-0------------7--------------------------------------
-0-3-0----2h3h5-0-3-0-------3-0--0-3-0----0-3-0-0-2-3-5-3-2-------------------
------------------------------------------------------------5-3-2-0-----------
 Riff 5 Both                              * * Drums start * * * * *           

------------------------------------------------------------------------------
------------------------------------------------------------------------------
-------h--------------h----------------h--------------------------------------
-------7--------------7-5-0------------7--------------------7-----------------
-0-3-0----2h3h5-0-3-0-------3-0--0-3-0----0-3-0-0-2-3-5-3-2-------------------
------------------------------------------------------------------------------
 Both                                                                         

------------------------------|--------------------|--------------------------
------------------------------|--------------------|--------------------------
------------------------------|--------------------|--------------------------
------------------------------|--------------------|-7/10\9-10/12-7-----------
-7--6----6--6----7--6----6--5-|-7/10\9-----10/12\7-|--------------------------
-5--4----4--5----5--4----4--3-|-5/8-\7-7-7-8-/10\5-|--------------------------
 Riff 6  Both "And he beheld"   Samoth pm.           Ishahn                   

------------------------------------------------------------------------------
------------------------------------------------------------------------------
------------------------------------------------------------------------------
-7/10-7-9-----------7/11-8-11-----------7/12-9-11--------------9-11-----------
----------10-7-8-7------------11-9-11-8-----------12-10-12-9--------12-9------
------------------------------------------------------------------------------
 Brige Ishahn                                                                 

------------------------------------------------------------------------------
------------------------------------------------------------------------------
------------------------------------------------------------------------------
-/10-----------------/11-----------------/12-----------------/12--------------
------------------------------------------------------------------------------
------------------------------------------------------------------------------
 Samoth                                                                       

------------------------------------------------------------------------------
------------------------------------------------------------------------------
------------------------------------------------------------------------------
------------------------------------------------------------------------------
-7-------7-7-------0-2-3-5-3-2-3-0-7-------7-7-7-10-6-9-7---------------------
-5-5-555-5-5-5-555-----------------5-5-555-5-5-5-8--4-7-5-3-5-6-5-3-5-6-5-3-5-
 Solo rythm.       **very fast****    Samoth              ***very fast*****   

------------------------------------------------------------------------------
------------------------------------------------------------------------------
------------------------------------------------------------------------------
------------------------------------------------------------------------------
---------7-7---------------------------5-7------------------------------------
-6-5-3-3-5-5-3-5-6-5-3-5-6-5-3-5-6-5-3-3-5------------------------------------
 *******     *************************      Listen for a timing in this one
Suggest correction new What's this?
You can suggest a correction to this tab. Community and Mods will review your correction and vote to approve or reject it.
comments
We did not receive enough feedback on this tab! Please rate:
print report bad tab
1 2 3 4 5
guest
You may want to rate the tab now too:
select rating
Please do not post tabs as comments. Select "correction" instead!