Oops, an error
Loading. Please wait.

The Source Of Icon E Tab

version 1
version 1

Whole song

Interactive

419 views 1 this week
no commentswrite comment
1 2 3 4 5
please rate
add to favorites
launch autoscroll
font size
0
reset
how to read this tab
guitar tuner
Tab Pro tools
  • play this tab
  • loop segment
  • change instrument
  • show fretboard
  • metronome
Autoscroll
slow
fast
+/-
esc
set tempo
stop
Guitar Tab for "The Source of Icon E"  
(artist: Emperor; Album :IX Equilibrium)
>From Demgoroth ( Demgoroth@hotmail.com )


~ : let ring
 : AH

Riff A
|--------------------------|
|--------------------------|
|--------------------------|
|--------------------------|
|--2-2225p22225p223p22/6-5-|
|--0-0003p00003p001p00/4-3-|
|
|--------------------------------------------------------------------------|
|-12~--11p8p7h11~--8h9p8p7p6\5~--------------------------------------------|
|--------------------------------8p7p6p5p4---------------------------------| Melody
|-----------------------------------------9p8p7----------------------------|
|----------------------------------------------7---------------------------|
|--------------------------------------------------------------------------|


-------|----------------------------|
-------|----------------------------|
-------|----------------------------|
---5-9-|---3/6---3/6---5\4444/7-----|
-4-3-7-|---1/4---1/4---3\2222/5-----|
-2-----|-00----00----00-------------|

angle your pick so that you almost play artificial harmonics all the time
|----------------------------------------------------------'---fill1---'--fill2---------|
|----------------------------------------------------------'-----------'----------------|
|-2h3p2-----------2h3p2---3h5p3---2h3p2-----------2h3p2----'-0h2h3h<5>-'-35555p37-------|
|---------5h7p5---------------------------5h7p5------------'-----------'----------------|
|------000-----000-----000-----000-----000-----000-----000-'-----------'----------------|
|----------------------------------------------------------'-----------'----------------|

|--------------------------------------------------------------------------|
|--------------------------------------------------------------------------|
|--------------------------------------------------------------------------|
|--2-----------------------2p12---------------------5p4--------------------|
|--2-----2p1-2-----4/5--------2-----1-2-----4/5----------------------------|
|--0-000-0-0-0-000-2/3-000----0-000-0-0-000-2/3-000------------------------|

|---------------------------------------------------------------------------------|
|---------------------------------------------------------------------------------|
|---------------------------------------------------------------------------------|
|--2---------------------------9--------------------------------------------------|
|--2-----2p1-2-----7/8-----7/8-7--------------------------------------------------|
|--0-000-0-0-0-000-5/6-000-5/6-000-000-000-000-000-000-000-000-000-000-000-000----|

|---------------------------------|
|---------------------------------|
|---------------------------------|
|---------------------------------|
|-speed pick while sliding--------|
|-12\0----------------------------|

|-------------------------------------------------------------------------
|-------------------------------------------------------------------------
|--------------------12911---------------------------<9>-------------------
|-2------------1112111079---2--------------------7910----------------------
|-2------------9-109--------2----------------7910--------------------------
|-0-000-00000---------------0--000-00000-7810------------------------------

							I'm not sure this is actually
							played but it sounds great. 
							Play it at the same speed as the
							ascending lick.
----------------------------------------------------|
----------------------------------------------------|
--------------------12911---------------------------|
-2------------1112111079---10-----------------------|
-2------------9-109--------10-----------------------|
-0-000-00000---------------8---888-88888-578578320--|

speed pick throughout
|----------------------------|-------------------------------------|
|----------------------------|-------------------------------------|
|--10--9---------------------|-------------------------------------|
|--10--9---5--8--12--10--13--|--2--------7/8-----4/5------7/8------|
|--8---7---5--8--12--10--13--|--0000000005/6000002/30000005/6------|
|----------3--6--10--8---11--|-------------------------------------|

speed pick throughout
|--------------------------------------------------------------------------|
|--------------------------------------------------------------------------|
|--------------------------------------------------------------------------|
|--9--5--3--9--5--7--9-------------------9-10------------------------------|
|--7--3--1--7--3--5--7--9-10-12-13-12-10-7-8-------------------------------|
|--------------------------------------------------------------------------|

That's it!
If you have any comments, email me.
comments
We did not receive enough feedback on this tab! Please rate:
print report bad tab
1 2 3 4 5
I want to post or [tab]
guest
You may want to rate the tab now too:
select rating
Please do not post tabs as comments. Select "correction" instead!