Oops, an error
Loading. Please wait.

An Idea Is A Better Monument Than A Cathedral Tab

1,548 views 18 this week
2 commentsread comments
1 2 3 4 5
worth learning
x 3
add to favorites
launch autoscroll
font size
0
reset
how to read this tab
guitar tuner
Tab Pro tools
  • play this tab
  • loop segment
  • change instrument
  • show fretboard
  • metronome
Autoscroll
slow
fast
+/-
esc
set tempo
stop
Contributor
Difficulty
novice
This is just the intro to this song, and only one guitar part.
Feel free to add more to this song if you know it. 
thelead3@gmail.com


e|-------------------------|     
B|-------------------------|     
G|-------------------------|     
D|-----9----9---9-8---9----| X 4 
A|--11---11---9-----9------|     
E|-------------------------|

e|-------------------------------------|
B|-------------------------------------|
G|----8-------8-------8-------8--------|
D|--------9-------9-------9-------9----|
A|--7---7---7---7---6---6---6---6---6--|
E|-------------------------------------|

e|-------------------------------------|
B|-------------------------------------|
G|-------------------------------------|
D|----9-------9-------9-------9--------|
A|--------9-------9-------9-------9----|
E|--7---7---7---7---7---7---7---7------|
comments
We did not receive enough feedback on this tab! Please rate:
print report bad tab
1 2 3 4 5
2 comments total.
+2 reply
pwdftw wrote on January 19 2013, 11:01 pm

It's pretty close, but try this:
Capo 4


e|------------------|
B|------------------|
G|--0---0---0-----0-|
D|2---2---0---4p0---|x4
A|------------------|
E|------------------|

e|--------|
B|--0-----|
G|------0-|
D|--------|x2
A|3---3---|
E|--------|

e|--------|
B|--0-----|
G|------0-|
D|--------|x2
A|2---2---|
E|--------|

e|--------|
B|--------|
G|--0-----|
D|------0-|x4
A|--------|
E|0---0---|

0 reply
shaundp wrote on March 17 2014, 07:12 pm

Or if you want to play without a capo, this is the same thing but without the capo

e|------------------|
B|------------------|
G|--4---4---4-----4-|
D|6---6---4---8p4---|x4
A|------------------|
E|------------------|

e|----------------|
B|--4-------4-----|
G|------4-------4-|
D|2---2---2---2---|
A|----------------|
E|----------------|

e|----------------|
B|--4-------4-----|
G|------4-------4-|
D|1---1---1---1---|
A|----------------|
E|----------------|

e|----------------|
B|----------------|
G|--4-------4-----|
D|------4-------4-|
A|----------------|
E|4---4---4---4---|

I want to post or [tab]
guest
You may want to rate the tab now too:
select rating
Please do not post tabs as comments. Select "correction" instead!