Oops, an error
Loading. Please wait.

An Idea Is A Better Monument Than A Cathedral Tab

2,205 views 3 this week
2 commentsread comments
1 2 3 4 5
x 4
add to favorites
launch autoscroll
font size
0
reset
how to read this tab
guitar tuner
Autoscroll
slow
fast
+/-
esc
set tempo
stop
Author
Difficulty
novice
This is just the intro to this song, and only one guitar part.
Feel free to add more to this song if you know it. 
thelead3@gmail.com


e|-------------------------|     
B|-------------------------|     
G|-------------------------|     
D|-----9----9---9-8---9----| X 4 
A|--11---11---9-----9------|     
E|-------------------------|

e|-------------------------------------|
B|-------------------------------------|
G|----8-------8-------8-------8--------|
D|--------9-------9-------9-------9----|
A|--7---7---7---7---6---6---6---6---6--|
E|-------------------------------------|

e|-------------------------------------|
B|-------------------------------------|
G|-------------------------------------|
D|----9-------9-------9-------9--------|
A|--------9-------9-------9-------9----|
E|--7---7---7---7---7---7---7---7------|
Suggest correction
comments
print report bad tab
2 comments total.
+3 reply
pwdftw 220 Jan 19, 2013 06:01 PM

It's pretty close, but try this:
Capo 4

e|------------------|
B|------------------|
G|--0---0---0-----0-|
D|2---2---0---4p0---|x4
A|------------------|
E|------------------|

e|--------|
B|--0-----|
G|------0-|
D|--------|x2
A|3---3---|
E|--------|

e|--------|
B|--0-----|
G|------0-|
D|--------|x2
A|2---2---|
E|--------|

e|--------|
B|--------|
G|--0-----|
D|------0-|x4
A|--------|
E|0---0---|

guest
You may want to rate the tab now too:
select rating
Wanna post a correction for this tab? Suggest correction