Oops, an error
Loading. Please wait.

Year Of The Rabbit tab

version 2
version 2

Whole song

Interactive

632 views 6 this week
1 commentread comment
1 2 3 4 5
1 last vote to show rating
add to favorites
×
Save as Personal and add changes to this tab that will be seen only by you. Learn more ›
×
You can save this tab as Personal to edit and correct it or add notes. All changes will be seen only by you. Learn more »
launch autoscroll
font size
0
reset
how to read this tab
guitar tuner
edit
Autoscroll
slow
fast
+/-
esc
set tempo
stop
Author
Difficulty
-------------------------------------------------------------------------------
         Year Of The Rabbit - EMPIRE! EMPIRE! (I WAS A LONELY ESTATE)
-------------------------------------------------------------------------------
Tabbed by: Joe H
E-mail: joey2_96@yahoo.com

Tuning: Standard

X4
e|---------------------------------------------------------------------------|
B|-----------0---------------0---------------0-----------------0-------------|
G|-------0-----0---0-----0-----0---0-----0-----0---0-------0-----0---0-------|
D|-----0---0-----0-----0---0-----0-----0---0-----0-------0---0-----0---------|
A|---3---------------5---------------7---------------------------------------|
E|---------------------------------------------------3(3)--------------------|

X4
e|---------------------------------------------------------------------------|
B|-------------------------------0-------------------------------------------|
G|-----0---0---0---0---0---0---0---0----0----0----0----0----0----0---0---0---|
D|---2---2---4---4---5---5---5-------12---12---12---12---10---10---9---9-----|
A|---------------------------------------------------------------------------|
E|---------------------------------------------------------------------------|


X4 Palm muted until the last time
e|---------------------------------------------------------------------------|
B|---------------------------------------------------------------------------|
G|---------------------------------------------------------------------------|
D|---5555555--77777777--99999999---------------------------------------------|
A|---3333333--55555555--77777777--55555555-----------------------------------|
E|--------------------------------33333333-----------------------------------|


e|------------------|------------------------------------------------------------|
B|--------0---------|---------0---------------0----------------------------------|
G|----0-------0---0-|-----0-------0---0---0-------0---0--------------------------|
D|------0---0---0---|-------0---0---0---0---0---0---0----------------------------|
A|--3---------------|------------------------------------------------------------|
E|------------------|---3--------------------------------------------------------|
                   X2

e|-----------------------------------------------------------------------------------|
B|-------0---------------0------------------------------------0----------0-----------|
G|---0-------0---0---0-------0---0---0---0---0---0---0---0--------0---0-------0---0--|
D|-----0---0---0---0---0---0---0--------------------------------0-------0---0---0----|
A|-3----------------------------------------------------------------3----------------|
E|---------------------------------3---3---3---3---2---2---2-------------------------|

e|-----------------------------------------------------------------------------------|
B|--------0---------------0---------------0---------------0---------------0----------|
G|----0-------0---0---0-------0---0---0-------0---0---0-------0---0---0-------0---0--|
D|------0---0---0-------0---0---0---0---0---0---0-------0---0---0---0---0---0---0----|
A|--3---------------0-------------------------------3--------------------------------|
E|-----------------------------------------------------------------------------------|

e|---------------------------------------------------------------------------|
B|---------------------------------------------------------------------------|
G|----0---0---0-------0---0---0----------------------------------------------|
D|----------------0---------------0------------------------------------------|
A|---------------------------------------------------------------------------|
E|--3---3---3---3---2---2---2---2--------------------------------------------|


X4
e|---------------------------------------------------------------------------|
B|-----------0---------------0---------------0-----------------0-------------|
G|-------0-----0---0-----0-----0---0-----0-----0---0-------0-----0---0-------|
D|-----0---0-----0-----0---0-----0-----0---0-----0-------0---0-----0---------|
A|---3---------------5---------------7---------------------------------------|
E|---------------------------------------------------3(3)--------------------|

X4
e|---------------------------------------------------------------------------|
B|-------------------------------0-------------------------------------------|
G|-----0---0---0---0---0---0---0---0----0----0----0----0----0----0---0---0---|
D|---2---2---4---4---5---5---5-------12---12---12---12---10---10---9---9-----|
A|---------------------------------------------------------------------------|
E|---------------------------------------------------------------------------|

e|----------------------------------------------------------------------------------|
B|----------------------------------------------------------------------------------|
G|----------------------------------------------------------------------------------|
D|---2/4/5--------------------------------------------------------------------------|
A|----------------------------------------------------------------------------------|
E|----------------------------------------------------------------------------------|

************************************

| /   slide up
| \   slide down
| h   hammer-on
| p   pull-off
| ~   vibrato
| +   harmonic
| x   Mute note
| b   Bend
| pb  Pre-bend
| br  Bend release
| pbr Pre-bend release
| brb Bend release bend

************************************

            
            
Suggest correction
Creating personal tab
Creating personal tab
You can edit any tab online and save it as your Personal.

You can edit, replace or remove any tab part or add personal notes – all changes will be seen only by you.

Personal tabs can be accessed anytime from any device, even offline.
Learn more »
Give kudos to tab author, rate the tab!
1 2 3 4 5
comments
print report bad tab
1 comment total.
+1 reply
ticklemeemoo 10 Aug 22, 2015 08:15 AM

it helps to follow this video https://www.youtube.com/watch?v=07iRv9-17c0

guest
You may want to rate the tab now too:
select rating
Wanna post a correction for this tab? Suggest correction