Oops, an error
Loading. Please wait.
We have Chord Pro version of We Are The People.
It's the closest thing you can get to the original song and it has interactive parts. Check out the tab »
×
24,352 views 9 this week
4 commentsread comments
1 2 3 4 5
x 7
add to favorites
×
Save as Personal and add changes to this tab that will be seen only by you. Learn more ›
×
You can save this tab as Personal to edit and correct it or add notes. All changes will be seen only by you. Learn more »
launch autoscroll
font size
0
reset
how to read this tab
guitar tuner
backing track
0:00
0:00
edit
Autoscroll
slow
fast
+/-
esc
set tempo
stop
Author
Difficulty
A class song - simple but sounds really good played on the guitar! 
I would have written the chords down for this instead of 
tabbing it but I don't think a few of them are chords! 
So just play it in the order shown below and with as many strums 
as you feel like - enjoy :D

E--------------|-------------|--------------|-------------|
B--------------|-------------|--0-----------|-------------|
G--0-----------|-------------|--0-----------|--0----------|
D--0-----------|-------------|--2-----------|--0----------|
A--2-----------|--0----------|--3-----------|--2----------|
E--2-----------|--2----------|--0-----------|--2----------|

E--0-----------|
B--3-----------|
G--2-----------|
D--------------|
A--------------|
E--------------|

            
            
Suggest correction
Creating personal tab
Creating personal tab
You can edit any tab online and save it as your Personal.

You can edit, replace or remove any tab part or add personal notes – all changes will be seen only by you.

Personal tabs can be accessed anytime from any device, even offline.
Learn more »
comments
print report bad tab
4 comments total. Showing first comments.
0 reply
kings_of_leon 93 Jan 25, 2010 10:33 AM

i think youve put the tab a string to high

0 reply
Percy3815 52 Jan 31, 2010 08:07 AM

you're right, my bad

0 reply
Percy3815 52 Jan 31, 2010 08:08 AM

E--------------|-------------|--------------|-------------|
B--------------|-------------|--0-----------|-------------|
G--0-----------|-------------|--0-----------|--0----------|
D--2-----------|-------------|--2-----------|--2----------|
A--2-----------|--0----------|--3-----------|--2----------|
E--0-----------|--2----------|--0-----------|--0----------|

E--0-----------|
B--3-----------|
G--2-----------|
D--------------|
A--------------|
E--------------|

guest
You may want to rate the tab now too:
select rating
Wanna post a correction for this tab? Suggest correction