Oops, an error
Loading. Please wait.

Garden Of The Growing Hearts bass

version 1
version 1

Whole song

Interactive

250 views 1 this week
no commentswrite comment
1 2 3 4 5
3 more votes to show rating
add to favorites
×
Save as Personal and add changes to this tab that will be seen only by you. Learn more ›
×
You can save this tab as Personal to edit and correct it or add notes. All changes will be seen only by you. Learn more »
launch autoscroll
font size
0
reset
guitar tuner
edit
Autoscroll
slow
fast
+/-
esc
set tempo
stop
Author
Difficulty
Empty Trash
Garden of the growing hearts
tabbed by Remy14

I love this song and i love playing it. So i have tabbed it for all the ones outside who 
through the whole world wide web for hours ;) Hope you enjoy playing it and i hope that 
is right... It is actually very easy to learn

There's no bass until 00:12

Intro
G|-------------------------------------------------------------|
D|-------------------------------------------------------------|
A|--12121212121212---------------------------------------------|
E|------------------0000000-----888888888888888----10-10-10----| 2x


Verse
G|-------------------------------------------------------------|
D|-------------------------------------------------------------|
A|--12121212121212---------------------------------------------|
E|------------------0000000-----888888888888888----10-10-10----| 5x


Chorus
G|-------------------------------------------------------------|
D|-------------------------------------------------------------|
A|-------------------------------------------------------------|
E|--121212121212-----8888888888----555555555555555-------------| 4x


Interlude
G|-------------------------------------------------------------|
D|-------------------------------------------------------------|
A|--12121212121212---------------------------------------------|
E|------------------0000000-----888888888888888----10-10-10----| 2x


Verse
G|-------------------------------------------------------------|
D|-------------------------------------------------------------|
A|--12121212121212---------------------------------------------|
E|------------------0000000-----888888888888888----10-10-10----| 5x


Chorus
G|------------------------------------------------------------|
D|------------------------------------------------------------|
A|------------------------------------------------------------|
E|--121212121212-----8888888888----555555555555555------------| 4x


Chorus: bass starts at 2:40 when he sings "I know, that you know..", play slightly at first
G|------------------------------------------------------------|
D|------------------------------------------------------------|
A|------------------------------------------------------------|
E|--121212121212-----8888888888----555555555555555------------|

repeat the chorus till the end
Have fun ;)

            
            
Suggest correction
Creating personal tab
Creating personal tab
You can edit any tab online and save it as your Personal.

You can edit, replace or remove any tab part or add personal notes – all changes will be seen only by you.

Personal tabs can be accessed anytime from any device, even offline.
Learn more »
Give kudos to tab author, rate the tab!
1 2 3 4 5
comments
print report bad tab
guest
You may want to rate the tab now too:
select rating
Wanna post a correction for this tab? Suggest correction