Oops, an error
Loading. Please wait.

Litcatcher bass

10 views 1 this week
no commentswrite comment
1 2 3 4 5
3 more votes to show rating
add to favorites
×
Save as Personal and add changes to this tab that will be seen only by you. Learn more ›
×
You can save this tab as Personal to edit and correct it or add notes. All changes will be seen only by you. Learn more »
launch autoscroll
font size
0
reset
guitar tuner
edit
Autoscroll
slow
fast
+/-
esc
set tempo
stop
(/) Slide Up  (\) Slide Down  (h) Hammer On  (p) Pull Off  (b) Bend (r) Release (v) Vibrato

[Bridge 1]
[Intro]
E |-------------------------------------------------------------------|
B |-----------------------------8--------------------------------8----|
F#|--------------------------12---12--------------------------12------|
B |-0-0----0-0-0-0-10-12-0-0---------0-0----0-0-0-0-10-12-0-0---------|

E |-----------------------------------------------------------------|
B |-----------------------------------------------------------------|
F#|-----------------------------------------------------------------|
B |-8-8-8-8-8-8-8-8-8-8-8-8-8-8-8-8-5-5-5-5-5-5-5-5-5-5-5-5-5-5-5-5-|

E |-------------------------------------------------------------------|
B |-----------------------------8--------------------------------8----|
F#|--------------------------12---12--------------------------12------|
B |-0-0----0-0-0-0-10-12-0-0---------0-0----0-0-0-0-10-12-0-0---------|

E |-----------------------------------------------------------------|
B |-----------------------------------------------------------------|
F#|-----------------------------------------------------------------|
B |-8-8-8-8-8-8-8-8-8-8-8-8-8-8-8-8-5-5-5-5-5-5-5-5-5-5-5-5-5-5-5-5-|

[Pause
]
E |-------------------------------------------------------------------------------------------------|
B |-------------------------------------------------------------------------------------------------|
F#|-------------------------------------------------------------------------------------------------|
B |-------------------------------------------------------------------------------------------------|

E |-----------------------------------------------------------------|
B |-----------------------------------------------------------------|
F#|-----------------------------------------------------------------|
B |-8-8-8-8-8-8-8-8-8-8-8-8-8-8-8-8-5-5-5-5-5-5-5-5-5-5-5-5-5-5-5-5-|

[Verse 1]

E |-----------------------------------10-10-10--------------------------------|
B |-----------------------------------0--0--0-------------8-------------------|
F#|----13h17h13-------------------------------------------12------------------|
B |-------------0p12-0-0----13-0-0----------------p12-0-0----0-0----1-1-1-1-1-|

E |------------------------------------------------------------------------------|
B |----------------------------------------8-------------------------------------|
F#|-------------------------------------12---12----------------------------------|
B |----0-0-0-0-0-0-0-0----0-0-0----0------------0-0-0-0-0-0-0-0----0-0-0-0-0-0-0-|

[Breakdown 1
]
E |-----------------------------------------------------------------------------------------------|
B |-----------------------------------------------------------------------------------------------|
F#|-----------------------------------------------------------------------------------------------|
B |-0----0-0-0-0-0----0-0-0----0----0----0----0-------0----0-0-0-0-0----0-0-0----0----0----0----0-|

E |-----------------------------------------------------------------------------------------------|
B |-----------------------------------------------------------------------------------------------|
F#|-----------------------------------------------------------------------------------------------|
B |-0----0-0-0-0-0----0-0-0----0----0----0----0-------0----0-0-0-0-0----0-0-0----0----0----0----0-|

[Pause]
E |-|
B |-|
F#|-|
B |-|

[Chorus]
E |-----------------------------------------------------------------|
B |-----------------------------------------------------------------|
F#|-----------------------------------------------------------------|
B |-8-8-8-8-8-8-8-8-8-8-8-8-8-8-8-8-8-8-8-8-8-8-8-8-8-8-8-8-8-8-8-8-|

E |-----------------------------------------------------------------|
B |-----------------------------------------------------------------|
F#|-----------------------------------------------------------------|
B |-5-5-5-5-5-5-5-5-5-5-5-5-5-5-5-5-5-5-5-5-5-5-5-5-5-5-5-5-7-7-7-7-|

E |-----------------------------------------------------------------|
B |-----------------------------------------------------------------|
F#|-----------------------------------------------------------------|
B |-8-8-8-8-8-8-8-8-8-8-8-8-8-8-8-8-8-8-8-8-8-8-8-8-8-8-8-8-8-8-8-8-|


E |---------------------------------------------------------|
B |---------------------------------------------------------|
F#|---------------------------------------------------------|
B |-5-5-5-5-5-5-5-5-5-5-5-5-5-5-5-5-5----5----5----5----5-5-|

[Verse 2]

E |---------------------------------------------------------10--------------------|
B |------------8----------------10-------12------------8-------------------8------|
F#|---------12---12----------------12---------------12---12------------------8-10-|
B |-0---------------0----0----8-------10----0---------------------0----5-8--------|

E |---------------------------------------------------------10--------------------|
B |------------8----------------10-------12------------8-------------------8------|
F#|---------12---12----------------12---------------12---12------------------8-10-|
B |-0---------------0----0----8-------10----0---------------------0----5-8--------|

E |-----------------------------------------|
B |------------8----------------10-------12-|
F#|---------12---12----------------12-------|
B |-0---------------0----0----8-------10----|

[Breakdown 2
]
E |--------------------------------------------|
B |--------------------------------------------|
F#|--------------------------------------------|
B |-0-0-0-0-0----0-0-0----0----0----0-0-0----0-|


E |--------------------------------------------|
B |--------------------------------------------|
F#|--------------------------------------------|
B |-0-0-0-0-0----0-0-0----0----0----0-0-0----0-|


E |--------------------------------------------|
B |--------------------------------------------|
F#|--------------------------------------------|
B |-0-0-0-0-0----0-0-0----0----0----0-0-0----0-|


E |--------------------------------------------|
B |--------------------------------------------|
F#|--------------------------------------------|
B |-0-0-0-0-0----0-0-0----0----0----0-0-0----0-|

[Bridge 2]
[Intro]
E |----------------------------------------------------------------|
B |-----------------------------8--------------------------------8-|
F#|--------------------------12---12--------------------------12---|
B |-0-0----0-0-0-0-10-12-0-0---------0-0----0-0-0-0-10-12-0-0------|

E |-----------------------------------------------------------------|
B |-----------------------------------------------------------------|
F#|-----------------------------------------------------------------|
B |-8-8-8-8-8-8-8-8-8-8-8-8-8-8-8-8-5-5-5-5-5-5-5-5-5-5-5-5-5-5-5-5-|

E |----------------------------------------------------------------|
B |-----------------------------8--------------------------------8-|
F#|--------------------------12---12--------------------------12---|
B |-0-0----0-0-0-0-10-12-0-0---------0-0----0-0-0-0-10-12-0-0------|

E |-----------------------------------------------------------------|
B |-----------------------------------------------------------------|
F#|-----------------------------------------------------------------|
B |-8-8-8-8-8-8-8-8-8-8-8-8-8-8-8-8-5-5-5-5-5-5-5-5-5-5-5-5-5-5-5-5-|

[Pause]
E |-|
B |-|
F#|-|
B |-|

E |---------------------------------------------------------|
B |---------------------------------------------------------|
F#|---------------------------------------------------------|
B |-8-8-8-8-8-8-8-8-8-8-8-8-8-8-8-8-5-5-5-5-5-5-5-5-5-5-5-5-|

[Chorus 2]
E |-----------------------------------------------------------------|
B |-----------------------------------------------------------------|
F#|-----------------------------------------------------------------|
B |-8-8-8-8-8-8-8-8-8-8-8-8-8-8-8-8-8-8-8-8-8-8-8-8-8-8-8-8-8-8-8-8-|

E |-----------------------------------------------------------------|
B |-----------------------------------------------------------------|
F#|-----------------------------------------------------------------|
B |-5-5-5-5-5-5-5-5-5-5-5-5-5-5-5-5-5-5-5-5-5-5-5-5-5-5-5-5-7-7-7-7-|

E |-----------------------------------------------------------------|
B |-----------------------------------------------------------------|
F#|-----------------------------------------------------------------|
B |-8-8-8-8-8-8-8-8-8-8-8-8-8-8-8-8-8-8-8-8-8-8-8-8-8-8-8-8-8-8-8-8-|

E |-----------------------------------------------------------------|
B |-----------------------------------------------------------------|
F#|-----------------------------------------------------------------|
B |-5-5-5-5-5-5-5-5-5-5-5-5-5-5-5-5-5-5-5-5-5-5-5-5-5-5-5-5-7-7-7-7-|

E |-----------------------------------------------------------------|
B |-----------------------------------------------------------------|
F#|-----------------------------------------------------------------|
B |-8-8-8-8-8-8-8-8-8-8-8-8-8-8-8-8-8-8-8-8-8-8-8-8-8-8-8-8-8-8-8-8-|

E |---------------------------------------------------------|
B |---------------------------------------------------------|
F#|---------------------------------------------------------|
B |-5-5-5-5-5-5-5-5-5-5-5-5-5-5-5-5-5----5----5----5----5-5-|

[Bridge 3]
E |-----------------------------------------------------------------------------|
B |-----------------------------------------------------------------------------|
F#|---------------------------------------3----3----3----3----3----3----5-3-0-3-|
B |-0----0----0----0----0----0----5-3-0-3---------------------------------------|

E |----------------------------------------------------------------------------|
B |----------------------------------------------------------------------------|
F#|-1----1----1----1----1----1----1----1----3----3----3----3----3----3----3----|
B |----------------------------------------------------------------------------|

E |-----------------------------------------------------------------|
B |-----------------------------------------------------------------|
F#|---------------------------------3-3-3-3-3-3-3-3-3-3-3-3-3-3-3-3-|
B |-0-0-0-0-0-0-0-0-0-0-0-0-0-0-0-0---------------------------------|

E |-----------------------------------------------------------------|
B |-----------------------------------------------------------------|
F#|-1-1-1-1-1-1-1-1-1-1-1-1-1-1-1-1-3-3-3-3-3-3-3-3-3-3-3-3-3-3-3-3-|
B |-----------------------------------------------------------------|


E |-----------------------------------------------------------------|
B |-----------------------------------------------------------------|
F#|---------------------------------3-3-3-3-3-3-3-3-3-3-3-3-3-3-3-3-|
B |-0-0-0-0-0-0-0-0-0-0-0-0-0-0-0-0---------------------------------|

E |-----------------------------------------------------------------|
B |-----------------------------------------------------------------|
F#|-1-1-1-1-1-1-1-1-1-1-1-1-1-1-1-1-3-3-3-3-3-3-3-3-3-3-3-3-3-3-3-3-|
B |-----------------------------------------------------------------|

[Pause]

E |-|
B |-|
F#|-|
B |-|

[Chorus 3]
E |-----------------------------------------------------------------|
B |-----------------------------------------------------------------|
F#|-----------------------------------------------------------------|
B |-8-8-8-8-8-8-8-8-8-8-8-8-8-8-8-8-8-8-8-8-8-8-8-8-8-8-8-8-8-8-8-8-|

E |-----------------------------------------------------------------|
B |-----------------------------------------------------------------|
F#|-----------------------------------------------------------------|
B |-5-5-5-5-5-5-5-5-5-5-5-5-5-5-5-5-5-5-5-5-5-5-5-5-5-5-5-5-7-7-7-7-|

E |-----------------------------------------------------------------|
B |-----------------------------------------------------------------|
F#|-----------------------------------------------------------------|
B |-8-8-8-8-8-8-8-8-8-8-8-8-8-8-8-8-8-8-8-8-8-8-8-8-8-8-8-8-8-8-8-8-|

E |-----------------------------------------------------------------|
B |-----------------------------------------------------------------|
F#|-----------------------------------------------------------------|
B |-5-5-5-5-5-5-5-5-5-5-5-5-5-5-5-5-5-5-5-5-5-5-5-5-5-5-5-5-7-7-7-7-|

E |-----------------------------------------------------------------|
B |-----------------------------------------------------------------|
F#|-----------------------------------------------------------------|
B |-8-8-8-8-8-8-8-8-8-8-8-8-8-8-8-8-8-8-8-8-8-8-8-8-8-8-8-8-8-8-8-8-|

E |---------------------------------------------------------|
B |---------------------------------------------------------|
F#|---------------------------------------------------------|
B |-5-5-5-5-5-5-5-5-5-5-5-5-5-5-5-5-5----5----5----5----5---|



************************************

| h  Hammer-on
| p  Pull-off

************************************

            
            
Suggest correction
Creating personal tab
Creating personal tab
You can edit any tab online and save it as your Personal.

You can edit, replace or remove any tab part or add personal notes – all changes will be seen only by you.

Personal tabs can be accessed anytime from any device, even offline.
Learn more »
Give kudos to tab author, rate the tab!
1 2 3 4 5
comments
print report bad tab
guest
You may want to rate the tab now too:
select rating
Wanna post a correction for this tab? Suggest correction